Rockin Tabs Home

 :: Home > Tabs > T > Three Doors Down > Wish you were here

Three Doors Down - Wish you were here


This tab has not yet been rated for accuracy.Sorry, but you must be logged in to rate this tab so we can tell which songs you've already voted on, which will help prevent cheating.
Click here to log-in, or you can click here to register.
(Registration is free)


Click here for a plain text version of this song (for better printing)

Add this tab to your list of favorite tabs




#----------------------------------PLEASE NOTE---------------------------------#
#This file is the author's own work and represents their interpretation of the #
#song. You may only use this file for private study, scholarship, or research. #
#------------------------------------------------------------------------------#


Wish You Were Here
By: Three Doors Down

this is the intro and verse.  im still trying to figure out the chorus.  it 
might not be 100% correct, but its close.  anyway, here it is

tuning: Eadgbe

e-------------------------------------------------------------------------------
b-------2-----1-----1---2--------------------------------------2-----1-----1----
g-----3---3-----3-----3---3-----------3-----------5----------3---3-----3-----3--
d---3-------3-----3---------3-------4---4-------6---6------3-------3-----3------
a-1---------------------------1---4-------4---6-------6--1----------------------
E-------------------------------2-----------4-----------------------------------

e---------------------------------------------
b--2---------------1-----2-----1-----2---4/6--
g-----3----------1---1-----1-----1-----1------
d--------3-----1-------1-----1-----1----------
a----------1----------------------------------
E------------4--------------------------------

well there it is, enjoy!



Comments about this tab

No comments/corrections found. Add your own



2005 ZMG, Inc.- All Right Reserved - Privacy Statement