Rockin Tabs Home

 :: Home > Tabs > J > Johnson, Jack > Taylor

Jack Johnson - Taylor


This tab has not yet been rated for accuracy.Sorry, but you must be logged in to rate this tab so we can tell which songs you've already voted on, which will help prevent cheating.
Click here to log-in, or you can click here to register.
(Registration is free)


Click here for a plain text version of this song (for better printing)

Add this tab to your list of favorite tabs




#----------------------------------PLEASE NOTE---------------------------------#
#This file is the author's own work and represents their interpretation of the #
#song. You may only use this file for private study, scholarship, or research. #
#------------------------------------------------------------------------------#


Taylor
Jack Johnson

hey y'all...mikee here...this is a sweet song and mad 
ta show off ta your friends with. its almost correct i
cant get everything completely right but most ppl wont 
tell the difference...it's about 98% right. ne ways here goes. got corrections? 
insults? want more tabs? got tabs? im at not_all_there777@hotmail.com

INTRO
e|-------------------------------X-----------------------------------------X---|
B|------X------------------------X-----------------X-----------------------X---|
G|------X------------------------X-----------------X-----------------------X---|
D|------X------------------------X-----------------X-1h3p1----3p1----------X---|
A|-1h3-----1h3p1---1--1h3p1------X------1-2---2/3----------3-----3p1-------X---|
E|---------------3----------3-1------123-----------------------------0-1-1-----|

e|----------------------------------------------------------------0--|
B|-----------------------------------------------------4--4-4-----1--|
G|-----------------------------------------------------2--2-2-----0--|
D|-------------------------3-3/5-5-3--2p0--------------3--3-3---2----|
A|----1---1---1---1---3------------------3p0-----------3--3-3-3------|
E|-1h3-1h3-1h3-1h3----------------------------1-1--------------------|

e|---0---0---0-----------1-----|
B|--/5-5-3-3-1-1---------1-----|
G|---0---0---0---5p3p0---2-----|
D|---------------------3-3-----|
A|-----------------------------|
E|-----------------------------|

VERSE AND CHORUS
e---------------------------------------|
B--11111xxx-11111xxx-11111xxx-----------|
G--00000xxx-00000xxx-00000xxx-22222xxx--|
D--22222xxx-00000xxx-22222xxx-33333xxx--|
A--33333xxx-22222xxx-00000xxx-33333xxx--|
E-----------------------------11111xxx--|




"...If taylor finds a better world...."

e-(0)-----------------------------------------------------|
B--1--1-1--1-1-/-3--3-3--3-3-/-6--6-6--6-6-/-8--8-8--8-8--|
G--0--0-0--0-0-/-0--0-0--0-0-/-0--0-0--0-0-/-0--0-0--0-0--|
D--2--2-2--2-2-/-4--4-4--4-4-/-7--7-7--7-7-/-9--9-9--9-9--|
A--3--3-3--3-3-/-5--5-5--5-5-/-8--8-8--8-8-/-10-1010-1010-|
E---------------------------------------------------------|

OUTRO same as mad lil intro...no one ever plays the imbetween bit ne ways...
catch ya later



Comments about this tab

No comments/corrections found. Add your own



2005 ZMG, Inc.- All Right Reserved - Privacy Statement