Rockin Tabs Home

 :: Home > Tabs > L > Linkin Park > One Step Closer

Linkin Park - One Step Closer


This tab has been rated a 5.00 out of 5 for accuracy.
(1 vote)
Sorry, but you must be logged in to rate this tab so we can tell which songs you've already voted on, which will help prevent cheating.
Click here to log-in, or you can click here to register.
(Registration is free)


Click here for a plain text version of this song (for better printing)

Add this tab to your list of favorite tabs




#----------------------------------PLEASE NOTE---------------------------------#
#This file is the author's own work and represents their interpretation of the #
#song. You may only use this file for private study, scholarship, or research. #
#------------------------------------------------------------------------------#


One Step Closer
Linkin Park

Submitted by GuiTarDudE89
Drop D flat
p=palm muting
h=hammer on 

Intro                                                                       (4x)
E-------------------------------------------------------------------------------
B-------------------------------------------------------------------------------
G-------------------------------------------------------------------------------
D-------------------------------------------------------------------------------
A------5p-------7p--------------------------------------------------------------
D--0p------0p---------0p----8p----7p----0p--3p----------------------------------

verse                                                                       (4x)
E-------------------------------------------------------------------------------
B-------------------------------------------------------------------------------
G-----------9-------------5-----------------------------------------------------
D--0--0--0--x----8--7--0--x------------------------------------------------------
A--0--0--0--7----8--7--0--3-----------------------------------------------------
D--0--0--0-------8--7--0--------------------------------------------------------

part before chorus
E-------------------------------------------------------------------------------
B-------------------------------------------------------------------------------
G-------------------------------------------------------------------------------
D--5-5--------5-5--------5-5----------------------------------------------------
A--5-5--------5-5--------5-5----------------------------------------------------
D--5-5-x-x-x--5-5-x-x-x--5-5-x-x-x-x--------------------------------------------

chorus                                  (2x the first time, 4x every other time)
E-------------------------------------------------------------------------------
B-------------------------------------------------------------------------------
G-------------------------------------------------------------------------------
D--0--0--0-12h--10-10--0-7h--8-8--0-5h--7-7--0-1h-------------------------------
A--0--0--0-12h--10-10--0-7h--8-8--0-5h--7-7--0-1h-------------------------------
D--0--0--0-12h--10-10--0-7h--8-8--0-5h--7-7--0-1h-------------------------------

at the end of each chorus
E-------------------------------------------------------------------------------
B-------------------------------------------------------------------------------
G-------------------------------------------------------------------------------
D--1-1-1-1-1-1-1-1--------------------------------------------------------------
A--1-1-1-1-1-1-1-1--------------------------------------------------------------
D--1-1-1-1-1-1-1-1--------------------------------------------------------------

verse

part before chorus

chorus

bridge (same as intro)

"shut up" part                                                              (3x)
E-------------------------------------------------------------------------------
B-------------------------------------------------------------------------------
G-------------------------------------------------------------------------------
D--1-0--0p-0p-0p--3-2-0-5-0-----------------------------------------------------
A--1-0--0p-0p-0p--3-2-0-5-0-----------------------------------------------------
D--1-0--0p-0p-0p--3-2-0-5-0-----------------------------------------------------

E-------------------------------------------------------------------------------
B-------------------------------------------------------------------------------
G-------------------------------------------------------------------------------
D--1-0--0p-0p-0p--3-2-0-1-1-1---------------------------------------------------
A--1-0--0p-0p-0p--3-2-0-1-1-1---------------------------------------------------
D--1-0--0p-0p-0p--3-2-0-1-1-1---------------------------------------------------
                                                                            (3x)
E-------------------------------------------------------------------------------
B-------------------------------------------------------------------------------
G-------------------------------------------------------------------------------
D--1-0--0p-0p-0p--3-2-0-5-0-----------------------------------------------------
A--1-0--0p-0p-0p--3-2-0-5-0-----------------------------------------------------
D--1-0--0p-0p-0p--3-2-0-5-0-----------------------------------------------------

E-------------------------------------------------------------------------------
B-------------------------------------------------------------------------------
G-------------------------------------------------------------------------------
D--1-0--0p-0p-0p--3-2-0-1-1-1---------------------------------------------------
A--1-0--0p-0p-0p--3-2-0-1-1-1---------------------------------------------------
D--1-0--0p-0p-0p--3-2-0-1-1-1---------------------------------------------------

chorus

That's it. Have fun and enjoy!



Comments about this tab

No comments/corrections found. Add your own



2005 ZMG, Inc.- All Right Reserved - Privacy Statement