Rockin Tabs Home

 :: Home > Tabs > H > Hendrix, Jimi > All Along The Watchtower

Jimi Hendrix - All Along The Watchtower


This tab has not yet been rated for accuracy.Sorry, but you must be logged in to rate this tab so we can tell which songs you've already voted on, which will help prevent cheating.
Click here to log-in, or you can click here to register.
(Registration is free)


Click here for a plain text version of this song (for better printing)

Add this tab to your list of favorite tabs




#----------------------------------PLEASE NOTE---------------------------------#
#This file is the author's own work and represents their interpretation of the #
#song. You may only use this file for private study, scholarship, or research. #
#------------------------------------------------------------------------------#


All Along The Watchtower
Jimi Hendrix

C#m - 9 11 11 9 9 x
B - 7 9 9 8 7 x
A - 5 7 7 6 5 x
C - 8 10 10 9 8 x
A/C# - x 4 2 2 2 0
Aopen - x 0 2 2 2 x
C#m7 - x 4 6 4 5 x
C#mIV - x 4 6 6 5 4
BII - x 2 4 4 4 x
Bsus4 - x 2 4 4 0 0
BII(type 2) - x 2 4 4 4 2
C#5 - x 4 6 x x x

all tuned Eb Ab Db Gb Bb Eb
Gtr I - 'Jimi Hendrix 12-string acoustic'
Gtr II - 'Jimi Hendrix clean electric'
Gtr III - 'Jimi Hendrix 12-string clean electric with delay'

Intro
  Q=116
         B   C#m           B   A            B   C#m          B   A
 4/4
  Gtr I
  H    E E E E    E E Q  E E E E   E E Q  E E E E   E E Q  E E E E
         | | |    | | |    | | |   | | |    | | |   | | |    | | |
         / / /    / / /    / / /   / / /    / / /   / / /    / / /
|--------------||----------------|----------------|-----------------|



                B            C
  E E E S S S S   E  E  S    S
  | | | | | | |   |  |  |    |
  / / / / / / /   /  /  /    /
Gtr II
  H         E     E  E  E
|------------------------------|
|-------------------12-14b16---|
|---------------/13------------|
|------------------------------|
|------------------------------|
|------------------------------|


  C#m                 B                            A           B
   E     E     E    S S E  E           E     S S    E  E  E. S   E     E E  S S
   |     |     |    | | |  |           |     | |    |  |  |  |   |     | |  | |
   /     /     /    x / /  /           /     x x    /  /  /  x   /     / /  x x

               ~~~~~                                      ~~~
   E     E     Q        E  S      +S   E  a  E      E  E  Q     +E     E E  E
|------------------------------------------------|------------------------------|
|-14b16-14b16-14b16-------14pb16r(14)-12---------|------------------------------|
|----------------------------------------11s13---|-11-11-11----(11)\-----9-11---|
|------------------------------------------------|-------------------/11--------|
|------------------------------------------------|------------------------------|
|------------------------------------------------|------------------------------|


         C#m               B
           E   E  E      S S   S  S  E          E  E
           |   |  |      | |   |  |  |          |  |
           /   /  /      x /   /  /  /          /  x

                  ~~~~~~~~~~~~~~~~
   a      +E   E  Q           +E     S      +S  E  E
|----------------------------------------------------|
|----------------------------------------------------|
|-11b13==(13)-11-11pb13======(13)---11pb13r(11)-9----|
|-------------------------------------------------11-|
|----------------------------------------------------|
|----------------------------------------------------|


                                                Verse 1
    A                    B              C        C#mIV     BII
     E   E          E  S S S S E  E       E      H         Q.    E
     |   |          |  | | | | |  |       |      |         |     |
     /   /          /  x / / / /  /       /      /         /     x

                    ~~~~
  a  S S E  a      +H             E      +E      Q   S S E E  Q  E
|---------------------------------------------||-------------------|
|-9h11p9---12b14==(14)-----------12b14==(14)\-||-------------------|
|--------9------------------------------------||----11p9-----------|
|---------------------------------------------||---------9----9--7-|
|---------------------------------------------||--------------9--7-|
|---------------------------------------------||-------------------|


  A/C#          BII      C#mIV           BII
  H        E    E      E E   H           H
  |             |      | |   |           |
  /             /      / /   /           /

                |-3--|          |-3--|
  Q  E S S S  S S  S S E E   Q  S  S S E Q  E E
|--------------------------|--------------------|
|--------------------------|--------------------|
|--------------------------|----9h11p9----------|
|-7-------------9h11p9-9---|-----------9----9-7-|
|-7--------9h11--------9-7-|----------------9-7-|
|------7h9-----------------|-9------------------|


  A/C#              Bsus4       C#mIV BII
   H            E   E    E  E   H     H
   |                |    |  |   |     |
   /                /    /  x   /     /

        |-3-|
   Q.   S S S   E a S  S E  E   Q  Q  E E a Q
|-----------------------------|------------------|
|-----------------------------|------------------|
|-----------------------------|----9------8s9----|
|-(7)---7h9p7-------9h11p9----|----9-------------|
|--7----------/11-x--------11-|------------------|
|-----------------------------|-9-----7-7--------|


  A/C#           BII     C#mIV            BII   A/C#
   H         S S E   E   E   H          E E E S S
   |         | | |   |   |   |            | | | |
   /         x x /   /   /   /            / / / /

  +Q.   S  S E   S S E a E   Q   S S Q.     E E
|--------------------------|----------------------|
|--------------------------|----------------------|
|-(9)----------------------|----11p9--------------|
|--------------------9-----|----------------------|
|-------9s11-----7h9-9-----|----------------------|
|------------7---------9s7-|-9-------9------7-7---|



                            C#m     B
                          Gtr I
  W                         H       H
                            |       |
                            /       /

  Q.   E S  S S  S Q        Q   Q   E Q  E
|-------------------------|-----------------|
|-5-----------------------|-----------------|
|-6-----------9s11s9------|-----9-----------|
|-7----7------------------|----(9)--9-9--7--|
|-7----7-9s11-------------|---------9-9--7--|
|-------------------------|-----------------|
|
|Gtr I
| H      E    E    S  S E
|-------------------------|
|-2-----------------------|
|-2-----------9---------9-|
|-2-----------9---------9-|
|-4----------------9h11---|
|-------------------------|


  A/C#          BII      C#mIV                BII
  H         S S E    E S S   H                H
  |         | | |    | | |   |                |
  /         x x /    / / /   /                /

  Q.   S  S E   S  S Q       S  S a  a E E  E E E E E
|--------------------------|--------------------------|
|--------------------------|--------------------------|
|-----------9---9s11s9-----|-----------9----------9---|
|-7---------9---9s11s9-----|------9h11p9-9----9-9---7-|
|-7----9s11----------------|-9h11--------9-11-9-9---7-|
|--------------------------|--------------------------|


  A/C#         BII(type 2)C#mIV      BII
  H        E    E E S S   H          H
  |             | | | |   |          |
  /             / / x x   /          /

                  ~
                             |-3-|
  Q.   S S E a  E Q       Q  S S S E Q  E E
|-----------------------|---------------------|
|-----------------------|----5h7p5------------|
|-----------------------|------------4--4-2---|
|-7----------9s11-9-----|----------6----4-2---|
|-7--------7------------|-4-------------------|
|------7h9--------------|---------------------|


  A/C#              BII       C#mIV BII   AopeC#
   Q   S E.       E E S S E   H     Q   E E
   |   | |          | | | |   |     |   | |
   /   / /          / / / /   /     /   / /

            |-3-|
   Q   E    S S S E E S S E   Q  Q  E E E E
|---------------------------|---------------|
|-----------2h5p2-----------|----5----------|
|-(2)--2----------2-1-4s6s4-|----4--4-4-4-2-|
|-(2)--2--------------------|----6--4-4-4-2-|
|--4------------------------|-4-------------|
|---------------------------|---------------|


      A/C#  A/C#  A/C#  BII
   S  S S S S S S S  S  S E          S  S   E
   |  | | | | | | |  |  | |          |  |   |
   o  / o / / o / /  /  / /          /  /   /

                             <
   q        e   s s +q       a      +e     +e
|-----------------------------------------------||
|---------------------------12b14==(14)r==(12)--||
|-(2)-------2-----2-(2)-------------------------||
|-(2)-------2-----2-(2)-------------------------||
|--4------------4-------------------------------||
|-----------------------------------------------||


 guitar solo 1
         c#miv        bii                          a/c#        bii             c#miv
           e  e e s s  e      e    e  s s            q   e s s s s e   e     s s
           |  | | | |  |      |    |  | |            |   | | | | | |   |     | |
           /  / / / /  /      /    /  x x            /   / x x / / /   /     / /

           ~~~~                                      ~~~~
   a       h           e     +s  s e  e      a      +h.               +s  s  e
|----------9-----------9------------------|--------------------------------------|
|-12b14==(14)---------12b14r(12)p9-9--9---|--------------------------------------|
|---------------------12b13----------11---|-11b13==(13)--------------(13)p9------|
|-----------------------------------------|---------------------------------11---|
|-----------------------------------------|--------------------------------------|
|-----------------------------------------|--------------------------------------|


                      bii                    aopen
  q        e  s     s   s  s e    e           s s
  |        |  |     |   |  | |    |           | |
  /        /  /     /   /  / /    /           / /

              ~~~~~~~~~~~~~
  e  s  s  e  e        +q      a  s      +s   e
|--------------------------------------------------|
|---------12-14b16====(16)-------14pb16r(14)-12----|
|-9-11s13----------------------x-------------------|
|--------------------------------------------------|
|--------------------------------------------------|
|--------------------------------------------------|


  a/c#           bii                        c#miv
   q       e s s s s  s     s   e        s  s
   |       | | | | |  |     |   |        |  |
   /       / x x / /  /     /   /        x  /

   ~~~~~~~
   h             e    e        +e       +e
|---------------------------------------------|
|-14pb16=============14pb17r==(14)b17==(17)---|
|---------------------------------------------|
|---------------------------------------------|
|---------------------------------------------|
|---------------------------------------------|


                      bii                           a/c#             bii                 c#miv
           e  e e s s  s       s    e   e  s s       e  e  e    s  s s s  e       e    s s
           |  | | | |  |       |    |   |  | |       |  |  |    |  | | |  |       |    | |
           /  / / x x  /       /    /   /  / /       /  /  /    x  x / /  /       /    x /

           ~~~~
   a      +h           s      +s   +e   e  e      a  e  e  e    e    e    e      +s  e   s
|----------------------------------------------|--------------------------------------------|
|-14b16==(16)---------14b17==(17)r(14)-12-14---|-12s14-12s(0)------------------------9------|
|----------------------------------------------|---------------------9---11b13==(13)--------|
|----------------------------------------------|--------------(12)--------------------------|
|----------------------------------------------|--------------------------------------------|
|----------------------------------------------|--------------------------------------------|


                           bii
  e  e    e    s  s    e    e    e         s   s
  |  |    |    |  |    |    |    |         |   |
  /  /    /    x  x    x    /    /         x   x

  e  e    s  s s  s    s s  s s  s      s  s   s
|-9-------9--------------9-----------------------|
|---12b14---12-9-------9---12-9-----------(9)----|
|----------------11b13----------11pb12-11p=9-----|
|---------------------------------------------11-|
|------------------------------------------------|
|------------------------------------------------|


                                        verse 2
         a/c#        bii                 c#mivbii    a/c#      bii
           q     e s s  e  e    s s e    h    h      h       e e e e
           |     | | |  |  |    | | |    |    |      |         | | |
           /     / x /  /  /    / / /    /    /      /         / / /

              ~~
   a      +e  q.       +e.    s e   e    w           q  e  e e e q
|-------------------------------------||-----------|-----------------|
|-------------------------------------||-----------|-----------------|
|-11b13==(13)-9--------(9)s==18sx-----||-----------|---------4s6s4---|
|-------------------------------------||-----------|------/6---------|
|-------------------------------------||-----------|-----------------|
|-------------------------------------||-----------|-----------------|


  c#miv      bii       a/c#          bii
  h          h         h         e   e e e
  |          |         |             | | |
  /          /         /             / / /

                                       ~~
  q  a a e e e e e e   e e e s s e a e e.  s
|--------------------|-----------------------|
|----5h7p5-----------|-----------------------|
|------------4-4-----|-----2-------4s6-4p==0-|
|----------6-4-4-----|---2-------2-----------|
|------------------0-|-0-----2h4-------------|
|--------------------|-----------------------|


  c#miv       bii      a/c#            bii
  h           h        h             e e     e   e
  |           |        |               |     |   |
  /           /        /               /     /   /

      |-3-|              |-3-|         |-3-|
  e e s s s e q  e e   e s s s +e  e e s s s s s e
|--------------------|-------------------------------|
|-----5h7p5----------|---2h5p2-(2)-------------------|
|-----------4----4-2-|-----------------4h6p4-----4---|
|---6------------4-2-|-------------4s6-------4h6-----|
|--------------------|-------------------------------|
|--------------------|-------------------------------|


  c#miv    bii        a/c#     bii
  h        h          h     e   s  s e e
  |        |          |         |  | | |
  /        /          /         /  / / x

  q  s s e e q  e   a h    +e  +e    e e
|-----------------|----------------------|
|----7p5----------|----------------------|
|----------4-4----|----------------------|
|----------4-4----|-2s4----(4)-(4)s==2---|
|-4---------------|--------------------2-|
|-----------------|----------------------|


  c#miv      bii      a/c#             bii
  h          h        h           e    s  s e  e
  |          |        |           |    |  | |  |
  /          /        /           x    /  / /  x

  q  a a e e e q  e   q  e a  s s s  s s  s e  e
|-------------------|------------------------------|
|----5h7p5----------|------------------------------|
|------------4------|------9h11p9-----------9------|
|----------6-4-4----|-------------9s11------9------|
|-4-----------------|------------------9h11---11\--|
|-------------------|------------------------------|


  c#miv    bii      a/c#            bii
  h        h         h            e s s e e
  |        |         |              | | | |
  /        /         /              / / / x

  q  e  e  e q  e   +e  s s e s s e s s q
|-----------------|-------------------------|
|-----------------|-----------------5s7s5---|
|----4-(4)-4-4--2-|-(2)-----------4-4s6s4---|
|----6--6--4-4--2-|-(2)-----2-4s6-----------|
|-4---------------|-----2s4-----------------|
|-----------------|-------------------------|


  c#miv       bii       a/c#          bii        c#miv
  h           h          h          e  e e     s s
  |           |          |             | |     | |
  /           /          /             / /     / /

                                         |-3-|
  e e a s s e e e e e   +e  s s q   e  e s s s e
|---------------------|-----------------------------|
|-----5h7p5---4-------|-----5s7s5-------------------|
|-------------4---4-2-|-(2)-4s6s4--------4h6p4------|
|---6-------6-4-4---2-|-(2)--------/7-/6-------6----|
|-4-------------------|-----------------------------|
|---------------------|-----------------------------|


                                             guitar solo 2
             bii       a/c#       bii         c#miv                 bii
  h          h         h        e e e s  s    q     e  s s  e        e  e s s
  |          |         |          | | |  |    |     |  | |           |  | | |
  /          /         /          / / /  /    /     /  x x           /  / / /

                                                                        ~~
  q  a s s e e e e e   q.   s s e e e e       s s e e.   s  s  s  a  e  q
|--------------------|---------------------||----------------------------------|
|----5h7p5---4-------|---------------------||----------------------------------|
|------------4-4---2-|-2--------4-6-4------||-9-9-9-9----9s11-11-11s13---------|
|----------6-4-4---2-|-2----4s6-------6/---||--------------------------11------|
|-4------------------|---------------------||----------------------------------|
|--------------------|---------------------||----------------------------------|


  a/c#                          bii          c#miv                    bii                 a/c#
    e  s s e s s          s   s  e  e    e    q       q                 e           e  e s s
    |  | | | | |          |   |  |  |    |    |       |                 |           |  | | |
    /  / / / x x          x   x  /  /    x    /       /                 /           /  / x /

                                                                                    ~~~~~~~~~~
   +q      q      a       s   s  e  s s  e    s  s e  e  e      a      +e   a       q.
|-------------------------9---9--9----9--9-|-------------------------------------------------|
|----------------12b14==(14)-14-14-14---14-|-14r12p9--------------------------------9--------|
|------------------------------------------|---------11-11pb13-11b13==(13)-11b13==(13)-------|
|-(11)-------------------------------------|-------------------------------------------------|
|------------------------------------------|-------------------------------------------------|
|------------------------------------------|-------------------------------------------------|


                       bii
    e  e e  s       s    s  s  e  e          s s
    |  | |  |       |    |  |  |  |          | |
    /  / /  x       x    /  /  /  /          x /

 ~~~~~~
   +q.      s      +s   +s  s  e  s      +s  e
|-------------------------------------------------|
|--(9)---------------------------------------9----|
|-(13)-----11b13==(13)r(11)p9----11b13==(13)------|
|-----------------------------11------------------|
|-------------------------------------------------|
|-------------------------------------------------|


  c#miv       bii                               a/c#                       bii             c#miv
  e   e  e  s s          s  s e   e  s  s         e   e  e  s     s          s  s  e  e  s  s
  |   |  |  | |          |  | |   |  |  |         |   |  |  |     |          |  |  |  |  |  |
  /   /  /  x /          /  / /   /  x  x         /   /  /  x     x          /  /  /  /  x  /

                         ~~~~
  e   e  e  e    a      +q       +e.    s        +e   e  e  e        a      +e     e  e.    s
|-9-----12-14---14b16==(16)-----(16)---14pb16r|=(16)-12-14-14pb16---12b14==(14)---12-------12-|
|---/14---------------------------------------|--------------------------------------14-------|
|---------------------------------------------|-----------------------------------------------|
|---------------------------------------------|-----------------------------------------------|
|---------------------------------------------|-----------------------------------------------|
|---------------------------------------------|-----------------------------------------------|


                                        bii
             e  e   e        s  s         e  s s e  s s
             |  |   |        |  |         |  | | |  | |
             /  /   /        /  /         /  / / /  x x

  a  a      +q     +e       +e     a     +q.        e
|-------------------------------------------------------|
|---14b16==(16)r==(14)b16==(16)---14b16-(16)-------14---|
|-x-----------------------------------------------------|
|-------------------------------------------------------|
|-------------------------------------------------------|
|-------------------------------------------------------|


  a/c#                                    bii
           s  s  e  e           s s     s s e   q
           |  |  |  |           | |     | | |   |
           /  /  /  /           x x     x / /   /

                                                     gt
   a      +e     e  s      +s   e    a  q      +q
|----------------------------------------------------||
|-14b16==(16)---14-14pb16r(14)-14--------------------||
|-----------------------------------12s13-----(13)\--||
|----------------------------------------------------||
|----------------------------------------------------||
|----------------------------------------------------||


  c#mivbii     a/c#       bii      c#miv  bii
  h     h      e s s q  e s s q     h     h
  |     |      | | | |    | | |     |     |
  /     /      / / / /    / / /     /     /

 r iii
  h     h      h        q     q     h.        q
|------------|-------------------|------------------|
|------15s===|=2-----------------|------------------|
|------15s===|=2-----------------|------------------|
|------15s===|=2--------------4s=|=11--------11s====|
|------------|-------------------|------------------|
|------------|-------------------|------------------|


  a/c#     bii          c#miv  bii      a/c#             bii
   h     s s e    q      h     h         q   e s s e e    q
   |       | |    |      |     |         |   | | |   |    |
   /       / /    /      /     /         /   / / /   /    /

   ~~~                   ~~~             ~~~
                  |3|
   h.          a  q e    h.        q     h.            a  q
|---------------------|---------------|----------------------|
|---------------------|-----------11s=|=14-------------------|
|--------------9s11-9-|---------------|----------------9s11--|
|-14------------------|-11--------11s=|=14-------------------|
|---------------------|---------------|----------------------|
|---------------------|---------------|----------------------|


  c#miv    bii      a/c#     bii
   h        h        q  e. s e  s s s s e
   |        |        |  |  | |  | | | | |
   /        /        /  /  / /  / / / / /

      ~~~~~~~~
   e  q.    q  q     q  q    e  e   q
|-----------------|--------------------------||
|-----------------|--------------------------||
|-11s13----11--9--|-11---------/x------------||
|-----------------|------------/x------------||
|-----------------|--------------------------||
|-----------------|--------------------------||


  c#miv                      bii
   h                          h
   |                          |
   /                          /

  gtr ii
   s  s  s  s  a  e  s  s  a  e  s  s  a  s  s  s  s
|-12-12-12-12-12s14-14-14-14s16-16-16-16s19-19-19-19-|
|----------------------------------------------------|
|--9--9--9--9--9s11-11-11-11s13-13-13-13s16-16-16-16-|
|----------------------------------------------------|
|----------------------------------------------------|
|----------------------------------------------------|


  a/c#        bii
   h      s s s s s s          s  s
   |      | | | | | |          |  |
   /      x x / / / /          /  x

   q   q  q       e    a      +s  s
|-19\--------------------------------|
|---------------------------------9--|
|-16\-----------------11b13==(13)----|
|------------------------------------|
|------------------------------------|
|------------------------------------|


  c#miv                 bii
  h                      h
  |                      |
  /                      /

  s  s s  s s  s    s s  s s  s     s s  s s  s
|-9----9----9---------9-------------------------|
|---12---12---------9---12-9--------------------|
|-------------11b13----------11b13-11-9----9-11-|
|---------------------------------------11------|
|-----------------------------------------------|
|-----------------------------------------------|


         a/c#               bii               c#miv            bii
           h              e s s  e       e    h                   h
           |                | |  |       |    |                   |
           /                / /  /       /    /                   /

                     ~~~~~
   a      +e   +e   +q    q      e      +e    s  s s  s s s  s s  s s s  s s  s s s
|-------------------------------------------|-9----9-11-9------9-11-9------9-11-9----|
|-------------------------------12b14==(14)-|---12--------9-12--------9-12--------9--|
|-11b13==(13)-(13)-(13)r--------------------|----------------------------------------|
|-------------------------------------------|----------------------------------------|
|-------------------------------------------|----------------------------------------|
|-------------------------------------------|----------------------------------------|


  a/c#                        bii
   h                      e    s     s e e
   |                           |     | | |
   /                           /     / / /

   e    s  s s  s    s s  s s  s     s e e
|-------9----9---------9-------------------|
|-12b14---12---------9---12-9--------------|
|--------------11b13----------11b13-11-9---|
|------------------------------------------|
|------------------------------------------|
|------------------------------------------|


  c#miv               bii              a/c#                bii
  h                    q   q             s  e  s  e  s s e s s e   e
  |                    |   |             |  |  |  |  | | | | | |   |
  /                    /   /             /  /  /  /  / / / / / /   x

                       ~~~
  e  a      +q     e   h         a       e.    s  q      q     s s s s
|------------------9---9------|---------11----11-11--------------------||
|---12b14==(14)--(14)-12r-----|-14b16==(16)---14-14r-----------x-x-x-x-||
|-----------------------------|--------------------------------x-x-x-x-||
|-----------------------------|--------------------------------x-x-x-x-||
|-----------------------------|----------------------------------------||
|-----------------------------|----------------------------------------||


  c#miv         bii
   e  s s e   s s   s  s s s e   s s
   |  | | |   | |   |  | | | |   | |
   /  / / /   x /   /  / / / /   x x

   e  s s s s e     e    e   s s e
|--9-^9-9-9-9-9---/(7)---9---9-7-7---|
|-11-^9-9-9-9-9----/7----7---7-7-7---|
|------------------/9------------8---|
|------------------------------------|
|------------------------------------|
|------------------------------------|


  a/c#            bii                      c#miv          bii
    e  e  e   s s   e     s  s  e  s  s      e e e    s s   e  e e   s s
    |  |  |   | |   |     |  |  |  |  |      | | |    | |   |  | |   | |
    /  /  /   / /   /     /  /  /  x  x      / / /    / /   /  / /   / /

    e  e  s s s s   s  s  s  s  e  s  s      e e s  s e     e  e s s e
|-/(5)-5---------------------------------|-------9--9-9---/(7)-7-9-7-7---|
|--/5--5-/8-8-8-8-/10-10-10-10-10\-------|-----9-9---------/7--7-7-7-7---|
|--/6----/9-9-9-9-/11-11-11-11-11\---(4)-|-----------------/8--8---------|
|----------------------------------------|-/11-----11--------------------|
|----------------------------------------|-------------------------------|
|----------------------------------------|-------------------------------|


  a/c#       bii           c#miv                 bii        aopen
   e e e   s s s s s s e   s s     e e  e   s s   e s s e   s s
   | | |   | | | | | | |   | |     | |  |   | |   | | | |   | |
   / / /   x / / / / / /   / /     / /  /   / /   / / / /   / /

   e e s s s s s s s s s s s s     e e  s s s s   e e   s s s s
|----5-5-x-x-x-x-x-x-x-x-x-x-x-|-----9-11-9-9-------7---9-7-7---|
|----5-5-x-x-x-x-x-x-x-x-x-x-x-|-----9--9-9-9-x\----7---7-7-7---|
|-/6---------------------------|--------------x\-/8-----------x-|
|------------------------------|-/11--------------------------x-|
|------------------------------|--------------------------------|
|------------------------------|--------------------------------|


  a/c#            bii
   e e  e   s   s   s   s   e e    s  s
   | |  |   |   |   |   |   | |    |  |
   / /  /   /   /   /   /   / /    x  x

   e e  s s s   s  +s   s   e s s  s  s
|----5------------------------x-x-(0)-x-|
|----5-/8-8-8-/10-(10)-10-/13-x-x-(0)-x-|
|------/9-9-9-/11-(11)-11-/14-----------|
|-/7------------------------------------|
|---------------------------------------|
|---------------------------------------|


         c#miv                       bii
           e   e     s  s  s           s   e     s  s           e      s  s
           |   |     |  |              |   |     |  |           |      |  |
           /   /     /  /              /   /     /  /           /      /  /

   a       e   s  s  s  s  s   a       s   s  s  s  s   a       s   s  s  s
|----------9---9--9--9--9--9----------11--11-11-11-11----------12--12-12-12-|
|-12b14==(14)-12-12-12-12-12r-14b16==(14)-14-14-14-14r-15b17==(17)-15-15-15-|
|---------------------------------------------------------------------------|
|---------------------------------------------------------------------------|
|---------------------------------------------------------------------------|
|---------------------------------------------------------------------------|


  a/c#                                bii
   e           e      s  s  e           s   s  s  s  s  s e
   |           |      |  |              |   |  |  |  |  | |
   /           /      /  /              /   /  /  /  /  / /

   e   a       s   s  s  s  e   a       s   s  s  s  e    e
|-12----------14--14-14-14-14----------16--16-16-16-16------||
|-15r-17b19==(19)-17-17-17-17r-19b21==(21)-19-19-19-19r-----||
|-----------------------------------------------------------||
|-----------------------------------------------------------||
|-----------------------------------------------------------||
|-----------------------------------------------------------||


 verse 3
  c#mivbii          a/c#            bii      c#5
  h    e q.         h        e      s s e    e
  |    | |          |               | | |    |
  /    / /          /               / / /    /

  h    q    e s s   q  e s s t t e.     s e.
|-----------------|-----------------------------|
|-----------------|-----------------------------|
|-----------------|-----------------------------|
|-----------------|-----------------------------|
|-----------------|----------2h4-2--------------|
|-------------2h4-|-2----2h4------------2-0-----|


  c#miv     bii    a/c#          bii   c#5
  h         h      h           e s s e e
  |         |      |             | | | |
  /         /      /             / / / /

  q  a s e. h      q  s  e  s  e s s q
|----------------|-----------------------|
|----5h7p5-------|----5s=7s=5----5s7s5---|
|----------------|----6-(6)s4----4s6s4---|
|----------------|------------/6---------|
|-4--------------|-----------------------|
|----------------|-----------------------|


  c#miv   bii        a/c#           bii   c#5
  h       h          h            e s s e e
  |       |          |              | | | |
  /       /          /              / / / /

  q  e. s e q  s s   q  a s s s s e s s q
|------------------|------x-------------------|
|----5--5----------|----5h7-----7---5s7s5-----|
|----4--4---4--4-4-|------6---6-----4s6s4-----|
|-----------4--4-4-|-2------------------------|
|------------------|-2------------------------|
|------------------|--------------------------|


  c#m         bii           a/c#       bii     c#5 c#miv     bii



  h           h             h        e s s  e  e   h         h
  |           |             |          | |  |  |   |         |
  /           /             /          / /  /  /   /         /

  e e a s s e e s s s s e   e s s q  q      q      e e e s s e  q   e
|-------------------------|----------------------|-----4---------------|
|---5-5h7p5-----4-4-------|----------------(x)---|---------------------|
|---4-------4---4-4-4-----|----------------(x)---|-------4-4---(4)--4--|
|-6-----------4-----4---4-|-4-4-4-4--------(x)---|-------6-6----4---4--|
|---------------------6---|----------------------|-4-------------------|
|-------------------------|----------------------|---------------------|


  a/c#            bii   c#5 c#miv    bii        a/c#           bii   c#5
  h           s s s s e e   h        h          h            e s s e e
  |           | | | | | |   |        |          |              | | | |
  /           x x / / / /   /        /          /              / / / /

                                                   |-3-|
  q  s s s s  e   s s q     q  e s s e q  s s   q  s s s s s e s s e.   s
|-------------------------|----4--------------|----2h5p2--------------------|
|----5---5-5------5s7s5---|--------5----------|----------------5s7s5--------|
|----4h6-6-6------4s6s4---|------4-4-4-4----4-|----------4-6---4s6s4p==(0)--|
|------------/6-----------|--------6-4-4--4---|----------4-6-6--------------|
|-------------------------|-4-----------------|-----------------------------|
|-------------------------|-------------------|-----------------------------|


  c#miv        bii
  h            h
  |            |
  /            /

  q  a s s s s e e +e  s s
|--------------------------|
|----5h7p5---5-------------|
|------4-----4---4-(4)---4-|
|----------5-----4-(4)-4---|
|--------------------------|
|--------------------------|


    a/c#            bii        c#miv        bii
    h             e s s q      h            h
    |               | | |      |            |
    /               / / /      /            /

  a s s s s e s s e s s e. s   q  a s s s s e e e s s
|----------------------------|-------------------------|
|-------------------5s7s5--x-|----5h7p5---5------------|
|-----------------4-4s6s4--x-|----------4-------4-2-2--|
|-2h4p2-----2-4s6------------|-6--------------4-4-2----|
|-------2s4------------------|-4------------2----------|
|----------------------------|-------------------------|


                                      outro
  c#a/c#   a/cc#  a/c#bii                     c#miv           bii            a/c#
  s s s  s s  s s s s s e   s s e               e  e     e  s s  s s e  e  s  s
  | | |  | |  | | | | | |   | | |               |  |     |  | |  | | |  |  |  |
  o / o  / /  o / / x / /   / / /               /  /     /  x /  / / /  /  x  /

                                                ~~~~~~~~~~~~~~~~~~~~~~~~~~~~~~~~~
  s s s  s e.     s e   s s s s s s     a       e.    s  e  e    q      e  s  s
|---0---/5-0------0-0---0-0-2-2-0-0-||----------9-----9--9--9----9------9--9--9--|
|-0---0----0------0-0---0-0-2-2-0-0-||-12b14==(14)---12-12-12---12-----12-12-12r-|
|-----------------------------------||-------------------------------------------|
|-----------------------------------||-------------------------------------------|
|-----------------------------------||-------------------------------------------|
|-----------------------------------||-------------------------------------------|


                                                                     c#miv
           e          e           e           s  s          e  e e s s
           |          |           |           |  |          |  | | | |
           /          /           /           x  x          /  / / / /

                                                            ~~~~
   a       e   a      e   a       e   a       e     a       h
|----------9----------9-----------9-----------9-------------9-------------|
|-12b14==(14)-12b14-(14)-12b14==(14)-12b14==(14)---12b14==(14)------------|
|-------------------------------------------------------------------------|
|-------------------------------------------------------------------------|
|-------------------------------------------------------------------------|
|-------------------------------------------------------------------------|


                           c#m7
    q                 q     s  s s s e  s s
    |                 |     |  | | | |  | |
    /                 /     /  / / / /  / /

    ~~~~                    ~~~
   +s  s  a       e   e  e  q.          e
|--(9)-----------11--11-11-11----------11---|
|-(14)---14b16==(16)-14-14-14----------14---|
|-------------------------------------------|
|-------------------------------------------|
|-------------------------------------------|
|-------------------------------------------|


             a/c#                       c#m7                        c#miv      c#m7
   e           e           q              s  s s s s s e   e          e   q     s  s s s s s e
   |           |           |              |  | | | | | |              |   |     |  | | | | | |
   x           /           /              /  / / / / / /              /   /     /  / / / / / /

                                          ~~~~                                  ~~~
   e   a       e   a       e   e  a       h                e  a       e   e  e  h
|-11----------11----------11-------------11--------------|------------9---9--9--9---------------|
|-14r-14b16==(16)-14b16==(16)-14-14b16==(16)-------------|---12b14==(14)-12-12-12r--------------|
|--x-----------x-----------------------------------------|--------------------------------------|
|--------------------------------------------------------|--------------------------------------|
|--------------------------------------------------------|--------------------------------------|
|--------------------------------------------------------|--------------------------------------|


                     a/c#                                     c#m7
           e           e           q                       e  s s s s e
                       |           |                          | | | | |
                       /           /                          / / / / /

                                                           ~~~~
   a       e   a       e   a       e   a       e   a       h
|----------9-----------9-----------9-----------9-----------9------------|
|-12b14==(14)-12b14==(14)-12b14==(14)-12b14==(14)-12b14==(14)-----------|
|-----------------------------------------------------------------------|
|-----------------------------------------------------------------------|
|-----------------------------------------------------------------------|
|-----------------------------------------------------------------------|


           c#miv                      c#m7                                 a/c#                    c#m7
  e          e           q              s  s  s  s  s  s  e             e   e  q             e      s  s  s  s  e
             |           |              |  |  |  |  |  |  |                 |  |                    |  |  |  |  |
             /           /              /  /  /  /  /  /  /                 /  /                    /  /  /  /  /

  e  a       e   a       e   e  a       e     s  s  s  s  e     a       e   e  e  e  a       s   s  s  s  s  s  s   s
|-----------11----------11--11---------12----12-12-12-12-12--|---------14--14-14------------16--16-16-16-16-16-16--19-|
|---14b16==(16)-14b16==(16)-14-15b17==(17)---15-15-15-15-15r-|-17b19==(19)-17-17r17-19b21==(21)-19-19-19-19-19-19r----|
|------------------------------------------------------------|--------------------------------------------------------|
|------------------------------------------------------------|--------------------------------------------------------|
|------------------------------------------------------------|--------------------------------------------------------|
|------------------------------------------------------------|--------------------------------------------------------|


              c#miv                      c#m7     bii
   e           e     s  s  s  s  e     s  s  s  s  e
               |     |  |     |  |     |  |  |  |  |
               /     /  /     /  /     /  /  /  /  /

   s      +s   s  s  s  s  s  s  s  s  s  s  s  s  s  s
|-19b21==(21)-19-19-19-19-19-19-19-19-19-19-19-19-19-19r-|
|--------------------------------------------------------|
|--------------------------------------------------------|
|--------------------------------------------------------|
|--------------------------------------------------------|
|--------------------------------------------------------|


  a/c#                                             c#m7
   e              e          s       s  e     e     s  s  s  s  s  s
   |              |          |       |  |           |  |  |  |  |  |
   /              /          /       /  /           /  /  /  /  /  /

   s      s       s   s      s       s  s  s  s  s  s  s  s  s  s  s
|-19pb20-19pb21==19r-19pb20-19pb21==19-19-19-19-19-19-19-19-19-19-19--|
|---------------------------------------------------------------------|
|---------------------------------------------------------------------|
|---------------------------------------------------------------------|
|---------------------------------------------------------------------|
|---------------------------------------------------------------------|


        c#miv                   c#m7
   e     e     e     s  s  e     s  s  s s e
         |     |     |  |  |     |  |  | | |
         /     /     x  x  /     /  /  / / /

                                       ~~~~~~~
   s  s  s  s  s  s  s  s  s  s  s  s  q
|-19-19-19-19-19-19-19-19-19-19-19-19-19-----|
|--------------------------------------------|
|--------------------------------------------|
|--------------------------------------------|
|--------------------------------------------|
|--------------------------------------------|


     a/c#           c#m7                       c#miv                        c#m7
   e  e     e  s  s  s  s  s  s  s  s  e        q             e  s  s  e     s  s  s s e
      |     |  |  |  |  |  |  |  |  |  |        |             |  |  |        |  |  | | |
      /     /  x  x  /  /  /  /  /  /  /        /             /  /  /        /  /  / / /

 ~~~~       ~~                                  ~~~~~~~       ~~                   ~~
   e  s  s  e  s  s  s  s  s  s  s  s  s  s     e       s  s  e  s  s  s  s  s  s  q
|-19-19-19-19-19-19-19-19-19-19-19-19-19-19r-|-19pb21==19-19-19-19-19-19-19-19-19-19------|
|--------------------------------------------|--------------------------------------------|
|--------------------------------------------|--------------------------------------------|
|--------------------------------------------|--------------------------------------------|
|--------------------------------------------|--------------------------------------------|
|--------------------------------------------|--------------------------------------------|


  a/c#                       c#m7
   e  e     q           e     s  s  s  s  e
   |  |     |                 |  |  |  |  |
   /  /     /                 /  /  /  /  /

   ~~
   e  s  s  s  s  s  s  s  s  s  s  s  s  s  s
|-19-19-19-19-19-19-19-19-19-19-19-19-19-19-19-|
|----------------------------------------------|
|----------------------------------------------|
|----------------------------------------------|
|----------------------------------------------|
|----------------------------------------------|


  c#m7
   e  e              e      s  s          e     s   s         s  s  e
   |  |              |      |  |          |     |   |         |  |  |
   /  /              /      x  /          /     /   /         /  /  /

   e  s  s   a      +s   s  s  s   a      s  s  s   s  a      s  s  s  s
|-19-19-19r-19b21==(21)-19-19-19r-19b21==19-19-19r-19-19b21==19-19-19-19r-|
|-------------------------------------------------------------------------|
|-------------------------------------------------------------------------|
|-------------------------------------------------------------------------|
|-------------------------------------------------------------------------|
|-------------------------------------------------------------------------|


         a/c#                                    c#m7
           e      e             q           e     s  s  s  s  e
           |      |             |                 |  |  |  |  |
           /      /             /                 /  /  /  /  /

   a      +s   s  s  s   a      s  s  s  s  s  s  s  s  s  s  s  s
|-19b21==(21)-19-19-19r-19b21==19-19-19-19-19-19-19-19-19-19-19-19-|
|------------------------------------------------------------------|
|------------------------------------------------------------------|
|------------------------------------------------------------------|
|------------------------------------------------------------------|
|------------------------------------------------------------------|


   e  e     q     e     s  s   s       s   e
   |  |     |           |  |   |       |   |
   /  /     /           /  /   /       /   /

   ~~       ~~~~~
   e  s  s  e  e  s  s  s  s   s      +s   s  s
|-19-19-19-19-19-19-19-19-19r-19b21==(19)-19-19r-*|
|------------------------------------------------*|
|------------------------------------------------*|
|------------------------------------------------*|
|------------------------------------------------*|
|------------------------------------------------*|



Comments about this tab

No comments/corrections found. Add your own



2005 ZMG, Inc.- All Right Reserved - Privacy Statement