Rockin Tabs Home

 :: Home > Tabs > A > Aerosmith > Jaded

Aerosmith - Jaded


This tab has not yet been rated for accuracy.Sorry, but you must be logged in to rate this tab so we can tell which songs you've already voted on, which will help prevent cheating.
Click here to log-in, or you can click here to register.
(Registration is free)


Click here for a plain text version of this song (for better printing)

Add this tab to your list of favorite tabs




#----------------------------------PLEASE NOTE---------------------------------#
#This file is the author's own work and represents their interpretation of the #
#song. You may only use this file for private study, scholarship, or research. #
#------------------------------------------------------------------------------#


Jaded
Aerosmith

Asus2
x 0 2 2 0 0

D5
x x 0 2 3 x

Gtr I (E A D G B E) - 'Joe Perry - w/dist'
Gtr II (E A D G B E) - 'Brad Whitford - dist electric (doubled)'
Gtr III (E A D G B E) - 'Brad Whitford - acoustic'
Gtr IV (E A D G B E) - 'Joe Perry - Lead & Rhythm w/dist'
Gtr V (E A D G B E) - 'Fills - w/dist'

Intro
  Q=120
                         Asus2
 4/4
  Gtr IV
  W          H     Q   E E     +H..                 E
                         |      |
                         /      /

  Gtr I
             <
             ~~~~~~~~~
  w          h    +q   e e     +e   e e e e e    e  e
|----------|---------------||-------------------------|
|----------|---------------||o------------------------|
|----------|---------------||-------------------------|
|----------|-7----(7)----6-||--(6)--6-6-6-6-4-------6-|
|----------|-------------0-||o-(0)--------------------|
|----------|---------------||-------------------------|
|                           |-riff a
| gtrs ii, iii
| w          h     q   e e     +q     q   e e   +e  e
|----------|---------------||---------0-----0---------|
|----------|-------------0-||o-(0)----0-----2b3r(2)-0-|
|----------|-------------2-||--(2)----2-------------2-|
|----------|-------------2-||--(2)----2-------------2-|
|----------|-------------0-||o-(0)------------------0-|
|----------|---------------||-------------------------|


   h                 q   e e
                           |
                           /

  +e  s    +s  +e  e e e e e
|-----------------------------|
|-----------------------------|
|-----------------------------|
|-(6)-6b7==(6)r(6)-4-6-4---6--|
|--------------------------0--|
|-----------------------------|
|
| +q            q    q   e e
|---------------0-------------|
|-(0)-----------0----------0--|
|-(2)-----------2----------2--|
|-(2)-----------2----------2--|
|-(0)----------------------0--|
|-----------------------------|


                                  1.
                               d5                    asus2
  +h.                       e  e   +h..              e
   |                           |    |                |
   /                           /    /                /

  +e  s    +s  +e  e e e    e  e   +e   q  e +e  q   e
|--------------------------------|----------------------||
|--------------------------------|---------------------o||
|------------------------------6-|-(6)--6--4-(4)-4------||
|-(6)-6b7==(6)r(6)-4-6-4-------4-|-(4)--4--4-(4)-4---6--||
|-(0)----------------------------|-------------------0-o||
|--------------------------------|----------------------||
|                                            end riff a-|
|
| +q            q    e e   +e  e   +h.             q
|---------------0------0---------|----------------------||
|-(0)-----------0------2b3r(2)-3-|-(3)-----------------o||
|-(2)-----------2--------------2-|-(2)------------------||
|-(2)-----------2--------------0-|-(0)------------------||
|-(0)----------------------------|---------------------o||
|--------------------------------|----------------------||


                           verse 1 & 2
  2.
  d5
  +h..                e      w
   |
   /
                           *play second time only
                             ~~~
   e   +q   e +e  q   e      w
|-----------------------||--(0)*-------------|
|-----------------------||o-(0)*-------------|
|-(6)--(6)--4-(4)-4---2-||--(2)--------------|
|-(4)--(4)--4-(4)-4-----||-------------------|
|-----------------------||o------------------|
|-----------------------||-------------------|
|
|  h.               e e     +q   q  +e  q  e
|-----------------------||-------0--(0)-0----|
|-(3)-------------------||o------0--(0)-0--0-|
|-(2)-----------------2-||--(2)--2--(2)-2--2-|
|-(0)-----------------2-||--(2)--2--(2)----2-|
|---------------------0-||o-(0)--0--(0)------|
|-----------------------||-------------------|


  gtrs ii, iii
  +q   q  +e  q  e   +q   q  +e  q  e   +h     e e e e
|------0--(0)------|------0--(0)------|----------------|
|-(0)--0--(0)-0--0-|-(0)--0--(0)-0--3-|-(3)----3-3-3-0-|
|-(2)--2--(2)-2--2-|-(2)--2--(2)-2--2-|-(2)----2-2-2-2-|
|-(2)--2--(2)-2--2-|-(2)--2--(2)-2--0-|-(0)----0-0-0-2-|
|------0--(0)----0-|-(0)--0--(0)------|--------------0-|
|------------------|------------------|----------------|


  +q   q  +e  q  e   +q   q  +e  q  e   +q   q  +e  q  e
|------0--(0)-0----|------0--(0)------|------------------|
|-(0)--0--(0)-0--0-|-(0)--0--(0)-0--0-|-(0)--0--(0)-0--3-|
|-(2)--2--(2)-2--2-|-(2)--2--(2)-2--2-|-(2)--2--(2)-2--2-|
|-(2)--2--(2)----2-|-(2)--2--(2)-2--2-|-(2)--2--(2)-2--0-|
|-(0)--0--(0)------|------0--(0)----0-|-(0)--0--(0)-0----|
|------------------|------------------|------------------|


                   pre-chorus
  gtr i
   h     q   e e    +w                   h       q    e e
|--------------7-||-(7)---------------|-----------------7-|
|--------------7-||-(7)---------------|-----------------7-|
|--------------7-||-(7)---------------|-----------------7-|
|--------------9-||-(9)---------------|-----------------9-|
|----------------||-------------------|-------------------|
|----------------||-------------------|-------------------|
|
| gtrs ii, iii
| +h     e e e e     q   q  +e  e e e   +q   q  +e  q   e
|----------------||------0--(0)-------|------0--(0)-------|
|-(3)----3-3-----||--2----------2---2-|-(2)---------0---2-|
|-(2)----2-2-----||--2--------------2-|-(2)---------------|
|-(0)----0-0-----||--0--------------0-|-(0)---------------|
|--------------2-||-------------------|-------------------|
|----------------||-------------------|-------------------|


                             chorus
                     2/4     4/4
                           gtr iv
  +h..            e   h       h     e e e e   +q.    e e e e e
|-(7)---------------|------||---------------|-------------------|
|-(7)---------------|------||---------------|-------------------|
|-(7)---------------|------||---------------|-------------------|
|-(9)---------------|------||---------------|-------------------|
|-------------------|------||-0-----0-2-4---|-------------------|
|-------------------|------||-------------2-|-(2)----0h2-0-2-0--|
|
|  e   e e e e q  e   h       q  q  e e e e    q   q   e e e e
|--------0----------|------||-0--0--0-0-0-0-|--0---0---0-0-0-0--|
|------------2-0--2-|------||-2--2--2-2-2-2-|--2---2---2-2-2-2--|
|--2-------2------2-|------||-2--2--2-2-2-2-|--2---2---2-2-2-2--|
|-----------------0-|------||-2--2--2-2-2-2-|--2---2---2-2-2-2--|
|------2------------|------||-0--0--0-0-0-0-|-------------------|
|-------------------|------||---------------|--2---2---2-2-2-2--|


     ~
  q  q  e e e e   +q   q  e e e e   h     e e e e
|---------------|-----------------|---------------|
|---------------|-----------------|---------------|
|---------------|-------------2---|---------------|
|-------------2-|-(2)--2--2-4---4-|---------------|
|-4--4--4-2-4---|-----------------|-0-----0-2-4---|
|---------------|-----------------|-------------2-|
|
| q  q  e e e e    q   q  e e e e   q  q  e e e e
|-0--0--0-0-0---|--0---0--0-0-0-0-|-0--0--0-0-0-0-|
|-5--5--5-5-5---|--0---0--0-0-0-0-|-2--2--2-2-2-2-|
|-6--6--6-6-6---|--1---1--1-1-1-1-|-2--2--2-2-2-2-|
|-6--6--6-6-6---|--2---2--2-2-2-2-|-2--2--2-2-2-2-|
|-4--4--4-4-4---|--2---2--2-2-2-2-|-0--0--0-0-0-0-|
|-------------0-|--0---0--0-0-0-0-|---------------|


                        ~                              ~~~~~~~~~~~~~
  +q   e e e e e e   q  q  e e e e   +q   q  e e e e   q  q  q   q
|------------------|---------------|-----------------|-----------------|
|------------------|---------------|-----------------|-----------------|
|------------------|---------------|-------------2---|-----------------|
|------------------|-------------2-|-(2)--2--2-4---4-|-----------------|
|------------------|-4--4--4-2-4---|-----------------|-5--5--5---5\----|
|-(2)--2-0-2-0-2-0-|---------------|-----------------|-----------------|
|
|  q   q   e e e e   q  q  e e e e   +q   q  e e e e   q  q  e e e  e
|--0---0---0-0-0-0-|-0--0--0-0---0-|-(0)--0--0-0-0-0-|-2--2--2-2-2--2--|
|--2---2---2-2-2-2-|-5--5--5-5---0-|-(0)--0--0-0-0-0-|-3--3--3-3-3--3--|
|--2---2---2-2-2-2-|-6--6--6-6---1-|-(1)--1--1-1-1-1-|-2--2--2-2-2--2--|
|--2---2---2-2-2-2-|-6--6--6-6---2-|-(2)--2--2-2-2-2-|-0--0--0-0-0--0--|
|------------------|-4--4--4-4---2-|-(2)--2--2-2-2-2-|-----------------|
|--2---2---2-2-2-2-|-----------0-0-|-(0)--0--0-0-0-0-|-----------------|


           gtr i
  q  q  q  e e   +e  e e e  e  e e e
|--------------|---------------------|
|--------------|---------------------|
|--------------|---------------------|
|------------6-|-(6)-6-6-6--6--4---6-|
|-2----------0-|-(0)---0-0--0------0-|
|--------------|---------------------|
|
| q  q  q  e e   +q    q   +q.     e
|-2------------|-------0---(0)-------|
|-3----------0-|-(0)---0---(0)-----0-|
|-4----------2-|-(2)---2---(2)-----2-|
|-4----------2-|-(2)---------------2-|
|-2----------0-|-(0)---------------0-|
|--------------|---------------------|


 1.                              2.
                                                        gtr iv
  +e  s    +s  +e  e e q   e      e  s    +s  +e e e q  s s
|--------------------------0--||------------------------4-4-||
|--------------------------0-o||------------------------5-5-||
|--------------------------2--||---------------------4--4-4-||
|-(6)-6b7==(6)r(6)-4-6-4------||-(6)-6b7==(6)r(6)4-6-4------||
|-(0)------------------------o||-(0)------------------------||
|-----------------------------||----------------------------||
|
| +q            q    q   e e      e  e         e e h
|-----------------------------||----------------------------||
|-(0)-----------0------------o||-(0)-2---------2p0-0--------||
|-(2)-----------2----------2--||-(2)-2---------2---2--------||
|-(2)-----------2----------2--||-(2)-2---------2---2--------||
|-(0)-----------0----------0-o||-(0)-0---------0---0--------||
|-----------------------------||----------------------------||


 bridge
  gtr iv
   e e e e e e q    e e e e e e q     e e e e e e q    e e e e e e q
|--4---4---2---0--|-----4---2---0--|------4---2---0--|-----4---2---5---|
|--5-0---0---0----|----------------|----0---0---0----|-----------------|
|--4--------------|---2---2---2----|-----------------|---2---2---2-----|
|-----------------|-0--------------|--2--------------|-0---------------|
|-----------------|----------------|-----------------|-----------------|
|-----------------|----------------|-----------------|-----------------|
|
| gtrs ii, iii
|  w                w                 w                w
|-!0--------------|-2--------------|-!0--------------|-2---------------|
|-!0--------------|-3--------------|-!0--------------|-3---------------|
|-!1--------------|-2--------------|-!1--------------|-4---------------|
|-!2--------------|-0--------------|-!2--------------|-4---------------|
|-!2--------------|----------------|-!2--------------|-2---------------|
|-!0--------------|----------------|-!0--------------|-----------------|


  e e e e  e  e e e    e  e e e  e  e e e
|-----4----2----0---|-------4----2----0---|
|---0---0-----0-----|---------------------|
|-------------------|-----2---2-----2-----|
|-2---------------0-|--0------------------|
|-------------------|-------------------3-|
|-------------------|---------------------|
|
| h       +q.     e   +h        +q.     e
|-0-------(0)-----2-|-(2)-------(2)-------|
|-0-------(0)-----3-|-(3)-------(3)-----5-|
|-1-------(1)-----2-|-(2)-------(2)-----5-|
|-2-------(2)-----0-|-(0)-------(0)-----5-|
|-2-------(2)-------|-------------------3-|
|-0-------(0)-------|---------------------|


                    ~~~
  +e  e e s    +s  +q.   e   +e  e e s    +s  +q.   e
|--------------------------|---------------------------|
|---------5b6==(5)r(5)-----|---------4b5==(4)r(4)------|
|-------5------------------|-------4-------------------|
|-----5--------------------|-----4---------------------|
|-(3)--------------------2-|-(2)--------------------1--|
|--------------------------|---------------------------|
|
| +h               +q.   e   +h               +q.   e
|--------------------------|---------------------------|
|-(5)--------------(5)---4-|-(4)--------------(4)---3--|
|-(5)--------------(5)---4-|-(4)--------------(4)---3--|
|-(5)--------------(5)---4-|-(4)--------------(4)---3--|
|-(3)--------------(3)---2-|-(2)--------------(2)---1--|
|--------------------------|---------------------------|


  +e  e e  s    +s  +q.   e   +e  s    +s  +q   s    +s  +e   e  e
|---------------------------|--------------------------------------||
|----------3b4==(3)r(3)-----|-----3b4==(3)r(3)--3b4==(3)r(3)-------||
|-------3-------------------|--------------------------------------||
|-----3---------------------|--------------------------------------||
|-(1)---------------------1-|-(1)--------------------------------0-||
|---------------------------|--------------------------------------||
|
| +q    h.                    +h.                            +e  e
|---------------------------|--------------------------------------||
|-(3)---3-------------------|-(3)----------------------------(3)-0-||
|-(3)---3-------------------|-(3)----------------------------(3)-2-||
|-(3)---3-------------------|-(3)----------------------------(3)-2-||
|-(1)---1-------------------|-(1)----------------------------(1)-0-||
|---------------------------|--------------------------------------||


 guitar solo
w/riff a
   q    q     e  q   e   +e  e         q    +e   q   e
|----------------------|--------------------------------|
|----------------------|--------------------------------|
|--9\---6\----2--------|---------------2----(2)-/6---9--|
|----------------4---2-|-(2)-4--------------------------|
|----------------------|--------------------------------|
|----------------------|--------------------------------|
|
| +q    q    +e  e e e   +q            q     q     e e
|----------------------|---------------0----------------|
|-(0)---0----(0)-0---0-|-(0)-----------0-------------0--|
|-(2)---2----(2)-2---2-|-(2)-----------2-------------2--|
|-(2)---2----(2)-2---2-|-(2)-----------2-------------2--|
|-(0)------------0---0-|-(0)-----------0-------------0--|
|----------------------|--------------------------------|


   e   q   e +e   q    e        +e    e   e      e  +e   e e     +e
|----------------------------|-------12------------------------------||
|----------9-(9)-10---12b14==|=(12)r-----12pb14-10-(10)-12-9b10==(9)r||
|--9--11---------------------|---------------------------------------||
|----------------------------|---------------------------------------||
|----------------------------|---------------------------------------||
|----------------------------|---------------------------------------||
|
| +q     q    q     e  e        +q        q          q     e      e
|----------------------------|------------------------------------0--||
|-(0)----0-------------3-----|--(3)-------2-----------------------0--||
|-(2)----2-------------2-----|--(2)-------2-----------------------2--||
|-(2)----2-------------0-----|--(0)-------0-----------------------2--||
|-(0)----0-------------------|------------------------------------0--||
|----------------------------|---------------------------------------||
|
| gtr v
|  h          q     e  e        +e   +e   e      e  +e   e e     +e
|---------------------12b14==|=(12)r(12)--9-----12-(12)--------------||
|----------------------------|--------------------------12-9b10==(9)r||
|----------------------------|---------------------------------------||
|----------------------------|---------------------------------------||
|----------------------------|---------------------------------------||
|----------------------------|---------------------------------------||


 3rd verse
  +e      +e  +e      +e  +e      +e  +e      +e
|--------------------------------------------------|
|-(9)b10==(9)r(9)b10==(9)r(9)b10==(9)r(9)b10==(9)r-|
|--------------------------------------------------|
|--------------------------------------------------|
|--------------------------------------------------|
|--------------------------------------------------|
|
| +q           q           e       e   e       e
|-(0)----------0-------------------0---0-----------|
|-(0)----------0-------------------0---0-------0---|
|-(2)----------2-------------------2-----------2---|
|-(2)----------2-------------------------------2---|
|-(0)----------0-------------------------------0---|
|--------------------------------------------------|
|
| +e      +e  +e      +e  +e      +e  +e      +e
|--------------------------------------------------|
|-(9)b10==(9)r(9)b10==(9)r(9)b10==(9)r(9)b10==(9)r-|
|--------------------------------------------------|
|--------------------------------------------------|
|--------------------------------------------------|
|--------------------------------------------------|


                              gtr i
                                     <
  w              w               q   q  +q.    e
|--------------|--------------|----------------7-||
|--------------|--------------|----------------7-||
|--------------|--------------|------7--(7)----7-||
|--------------|--------------|------7--(7)------||
|--------------|--------------|------------------||
|--------------|--------------|------------------||
|
| q  q  q  e e   q  q  q  e e   +q   q   q   e e
|----0---------|----0---------|------------------||
|-0--0-------0-|-0--0-------3-|-(3)--3-----------||
|-2--2-------2-|-2--2-------2-|-(2)--2-----------||
|-2--2-------2-|-2--2-------0-|-(0)--0-----------||
|-0--0-------0-|-0--0---------|----------------2-||
|--------------|--------------|------------------||


 pre-chorus
                         <
  +w                     h      +q.     e   +w
|-(7)-----------------|----------------^7-|-(7)-----------------|
|-(7)-----------------|----------------^7-|-(7)-----------------|
|-(7)-----------------|--7------(7)----^7-|-(7)-----------------|
|---------------------|--7------(7)-------|---------------------|
|---------------------|-------------------|---------------------|
|---------------------|-------------------|---------------------|
|
|  q   q  e e   +e  e   +q   q   q   e  e    q   q  e e   +e  e
|--0---0----0---------|------0------------|------0----0---------|
|--2---2----2b3r(2)-2-|-(2)--2------------|--2---2----2b3r(2)-2-|
|--2---2------------2-|-(2)--2------------|--2---2------------2-|
|--0---0------------0-|-(0)--0------------|--0---0------------0-|
|------2--------------|-----------------2-|------2--------------|
|---------------------|-------------------|---------------------|


                               chorus
                  3/4          4/4             7/8
                             gtr iv
   w                w           q  q  e e e e   h     e e e
|----------------|-----------||---------------|---------------|
|----------------|-----------||---------------|---------------|
|----------------|-----------||---------------|---------------|
|----------------|-----------||---------------|---------------|
|----------------|-----------||-0--0--0-2-4---|-----------2s==|
|----------------|-----------||-------------2-|-2-----2-0-----|
|
| +q   q  q  e e   +q   h       q  q  e e e e   q  q  e e e
|------0---------|-----------||-0--0--0-0-0-0-|-0--0--0-0-0---|
|-(2)--2-------2-|-(2)-------||-2--2--0-0-0-0-|-2--2--2-2-2---|
|-(2)--2-------2-|-(2)-------||-2--2--2-2-2-2-|-2--2--2-2-2---|
|-(0)--0-------0-|-(0)-------||-2--2--2-2-2-2-|---------------|
|--------------2-|-(2)-------||-0--0--0-0-0-0-|---------------|
|----------------|-----------||---------------|-2--2--2-2-2---|


 4/4
   q      q        e    e    e  e
|------------------------------------|
|------------------------------------|
|------------------------------------|
|-------------------------------2----|
|--4------4--------4----2----4-------|
|------------------------------------|
|
|  q      q       +e    e    e  e
|--0------0-------(0)---0----0--0----|
|--5------5-------(5)---5----5--0----|
|--6------6-------(6)---6----6--1----|
|--6------6-------(6)---6----6--2----|
|--4------4-------(4)---4----4--2----|
|-------------------------------0----|
|
| gtr v
|  q      q       +e    q       e
|-12-----12------(12)--12------12----|
|-12-----12------(12)--12------12----|
|-11b13--11b13===(11)r-11b13---11b13r|
|------------------------------------|
|------------------------------------|
|------------------------------------|


    ~~~~
   +h          e  e  e e   h     e e e e   h     e e e e
|------------------------|---------------|---------------|
|------------------------|---------------|---------------|
|--------------------2---|---------------|---------------|
|--(2)---------2--4----4-|---------------|---------------|
|------------------------|-0-----0-2-4---|---------------|
|------------------------|-------------2-|-2-----2-0-2-0-|
|
|  +h          e  e  q     q  q  e e e e   q  q  e e e e
|--(0)---------0--0--0---|-0--0--0-0-0-0-|-0--0--0-0-0-0-|
|--(0)---------0--0--0---|-2--2--0-0-0-0-|-2--2--0-0-0-0-|
|--(1)---------1--1--1---|-2--2--2-2-2-2-|-2--2--2-2-2-2-|
|--(2)---------2--2--2---|-2--2--2-2-2-2-|-2--2--2-2-2-2-|
|--(2)---------2--2--2---|-0--0--0-0-0-0-|---------------|
|--(0)---------0--0--0---|---------------|-2--2--2-2-2-2-|
|
|  +e   q   e  e  e  q     w               w
|-------------12-12-12---|---------------|---------------|
|------12-----12-12-12---|---------------|---------------|
|-(11)--9------9--9--9---|---------------|---------------|
|----------11------------|---------------|---------------|
|------------------------|---------------|---------------|
|------------------------|---------------|---------------|


   q      q      e    e  e       e
|-----------------------------------|
|-----------------------------------|
|-----------------------------------|
|--------------------------------2--|
|--4------4------4----2--4----------|
|-----------------------------------|
|
|  q      q      e    e  e       e
|--0------0------0----0--0-------0--|
|--5------5------5----5--5-------0--|
|--6------6------6----6--6-------1--|
|--6------6------6----6--6-------2--|
|--4------4------4----4--4-------2--|
|--------------------------------0--|
|
|  q      q      q       e       e
|-12-----12-----12------12------12--|
|-12-----12-----12------12------12--|
|-11b13--11b13--11b13---11b13==(11)r|
|-----------------------------------|
|-----------------------------------|
|-----------------------------------|


   ~~~~~~~~
  +q     q         e       e  e e   q  q  e e e e
|---------------------------------|---------------|
|---------------------------------|---------------|
|-----------------------------2---|---------------|
|-(2)----2---------2-------4----4-|---------------|
|---------------------------------|-0--0--0-2-4---|
|---------------------------------|-------------2-|
|
| +w                                q  q  e e e e
|-(0)-----------------------------|-0--0--0-0-0-0-|
|-(0)-----------------------------|-2--2--2-2-2-2-|
|-(1)-----------------------------|-2--2--2-2-2-2-|
|-(2)-----------------------------|-2--2--2-2-2-2-|
|-(2)-----------------------------|-0--0--0-0-0-0-|
|-(0)-----------------------------|---------------|
|
|  e   q    e      s  +s   e  q     w
|-12--12---12-------------12-12---|---------------|
|-12--12---12-----12------12-12---|---------------|
|-11---9---11b13==11r(11)-11--9---|---------------|
|---------------------------------|---------------|
|---------------------------------|---------------|
|---------------------------------|---------------|


                        ~
  q  e e e e e s s   q  q  e e e e   +q   q  e e e e   q  q  e e e e
|------------------|---------------|-----------------|---------------|
|------------------|---------------|-----------------|---------------|
|------------------|---------------|-------------2---|---------------|
|------------------|-------------2-|-(2)--2--2-4---2-|-0--0--0-------|
|--------------2-3-|-4--4--4-2-4---|-----------------|-0--0--0-------|
|-2--2-0-2-0-2-----|---------------|-----------------|---------2-2-2-|
|
| q  q   e e e e     q  q  e e e e    q   q  e e e e   h     e e e e
|-0--0---0-0-0-0---|-0--0--0-0-0-0-|--0---0--0-0-0-0-|---------------|
|-2--2---2-2-2-2---|-5--5--5-5-5-0-|--0---0--0-0-0-0-|-7-----7-7-7-7-|
|-2--2---2-2-2-2---|-6--6--6-6-6-1-|--1---1--1-1-1-1-|-7-----7-7-7-7-|
|-2--2---2-2-2-2---|-6--6--6-6-6-2-|--2---2--2-2-2-2-|-7-----7-7-7-7-|
|------------------|-4--4--4-4-4-2-|--2---2--2-2-2-2-|-5-----5-5-5-5-|
|-2--2---2-2-2-2---|-------------0-|--0---0--0-0-0-0-|---------------|


                  ~~~~~~~~~~~~~~~~~~~~~~~~~~~~
  q  q  e e e e   q  q  q   q     q  q  q   q
|---------------|---------------|---------------|
|---------------|---------------|---------------|
|---------------|---------------|---------------|
|---------------|---------------|---------------|
|---------------|---------------|---------------|
|-2--2--2-2-2-0-|-5--5--5---5---|-2--2--2---2---|
|
| q  q  e e e e   q  q  e e e e   q  q  e e e e
|-2--2--2-2-2-2-|---------------|-2--2--2-2-2-2-|
|-2--2--2-2-2-2-|-7--7--7-7-7-7-|-2--2--2-2-2-2-|
|-2--2--2-2-2-2-|-7--7--7-7-7-7-|-2--2--2-2-2-2-|
|-4--4--4-4-4-4-|-7--7--7-7-7-7-|-4--4--4-4-4-4-|
|-4--4--4-4-4-4-|-5--5--5-5-5-5-|-4--4--4-4-4-4-|
|-2--2--2-2-2-2-|---------------|-2--2--2-2-2-2-|


                                  outro
                            gtr i
  ~~~~~~~~~~~~~
  q  q  q   q      q  q  q  e e    +e  e e e  e  e    e  e
|----------------|--------------||-------------------------|
|----------------|--------------||-------------------------|
|----------------|--------------||-------------------------|
|----------------|------------6-||-(6)-6-6-6--6--4-------6-|
|-5--5--5---5\---|-2----------0-||-(0)-------------------0-|
|----------------|--------------||-------------------------|
|
| q  q  e e e  e   q  q  q  e e    +q    q   +e  e   +e  e
|----------------|-7------------||-------0---(0)-0---------|
|-7--7--7-7-7--7-|-7----------0-||-(0)---0---(0)-2b3r(2)-0-|
|-7--7--7-7-7--7-|-7----------2-||-(2)---2---(2)---------2-|
|-7--7--7-7-7--7-|------------2-||-(2)---2---(2)---------2-|
|-5--5--5-5-5--5-|------------0-||-(0)-------------------0-|
|----------------|--------------||-------------------------|


                ~~~
  +e  s    +s  +e  e e e e e   +e  s    +s  +e  e  e  e    e  e   +w
|----------------------------|----------------------------------|--------*|
|----------------------------|----------------------------------|--------*|
|----------------------------|----------------------------------|--------*|
|-(6)-6b7==(6)r(6)-4-6-4---6-|-(6)-6b7==(6)r(6)-4--6--4s===2--2-|-(2)----*|
|-(0)----------------------0-|-(0)----------------------------0-|-(0)----*|
|----------------------------|----------------------------------|--------*|
|
| +q            q    q   e e   +q            q    +e  e   +e  e   +w
|---------------0------------|---------------0----(0)-0---------|--------*|
|-(0)-----------0----------0-|-(0)-----------0----(0)-2b3r(2)-0-|-(0)----*|
|-(2)-----------2----------2-|-(2)-----------2----(2)---------2-|-(2)----*|
|-(2)-----------2----------2-|-(2)-----------2----(2)---------2-|-(2)----*|
|-(0)----------------------0-|-(0)----------------------------0-|-(0)----*|
|----------------------------|----------------------------------|--------*|



Comments about this tab

No comments/corrections found. Add your own



2005 ZMG, Inc.- All Right Reserved - Privacy Statement