Rockin Tabs Home

 :: Home > Tabs > A > Aerosmith > Livin' On The Edge

Aerosmith - Livin' On The Edge


This tab has not yet been rated for accuracy.Sorry, but you must be logged in to rate this tab so we can tell which songs you've already voted on, which will help prevent cheating.
Click here to log-in, or you can click here to register.
(Registration is free)


Click here for a plain text version of this song (for better printing)

Add this tab to your list of favorite tabs




#----------------------------------PLEASE NOTE---------------------------------#
#This file is the author's own work and represents their interpretation of the #
#song. You may only use this file for private study, scholarship, or research. #
#------------------------------------------------------------------------------#


Livin' On The Edge
Aerosmith

Gtr I (D A D G B E) - 'Clean electric'
Gtr II, III (D A D G B E) - 'overdrive electric'
Gtr IV (E A D G B E) - 'lead - dist electric'
Gtr V (D A D G B E) - 'Acoustic'

Intro
  Q=88

 4/4
  Gtr V
  D5
  E S S E S   S   S S S S S S S S   E S S E S   S   S S S S S S S S
  | | | | |   |   | | | | | | | |   | | | | |   |   | | | | | | | |
  / / / / /   /   / / / / / / / /   / / / / /   /   / / / / / / / /

  Gtr I
          |--3--|                           |--3--|
  E Q     S S   S E   S S S S E     E Q     S S   S E   S S S S E
|---------0h2p==0-----0-----------|---------0h2p==0-----0-----------|
|---3-------------3-----3-----3---|---3-------------3-----3-----3---|
|-------------------------0h2-----|-------------------------0h2-----|
|-0-------------------------------|-0-------------------------------|
|---------------------------------|---------------------------------|
|---------------------------------|---------------------------------|
  W                                 W


  E S S E S   S   S S S S S S S S
  | | | | |   |   | | | | | | | |
  / / / / /   /   / / / / / / / /

          |--3--|
  E Q     S S   S E   S S S S E
|---------0h2p==0-----0-------------|
|---3-------------3-----3-----3-----|
|-------------------------0h2-------|
|-----------------------------------|
|-----------------------------------|
|-0---------------------------------|
  W


                                    Verse 1
  E S S E S   S   S S S S S S S S    E.   S E.     S   S S S S S S S S
  | | | | |   |   | | | | | | | |    |    | |      |   | | | | | | | |
  / / / / /   /   / / / / / / / /    /    / /      /   / / / / / / / /

          |--3--|                              |--3--|
  E Q     S S   S E   S S S S E      E  Q      S S   S E   S S S S E
|---------0h2p==0-----0-----------||-----------0h2p==0-----0-----------|
|---3-------------3-----3-----3---||----3--------------3-----3-----3---|
|-0-----------------------0h2-----||---------------------------0h2-----|
|---------------------------------||-----------------------------------|
|---------------------------------||-----------------------------------|
|---------------------------------||-0---------------------------------|
  W                                  W


  E.   S E.     S   S S S S S E.
  |    | |      |   | | | | | |
  /    / /      /   / / / / / /

            |--3--|
  E  Q      S S   S E   S S S S  E
|----0------0h2p==0-----0-----------|
|----3--------------3-----3------3--|
|---------------------------0h2-----|
|-0---------------------------------|
|-----------------------------------|
|-----------------------------------|
  W


                                              D5
  W                   W                       Q     E  S   S   S S S S S S S S
                                              |     |  |   |   | | | | | | | |
                                              /     /  /   /   / / / / / / / /

  Gtrs I, II                                Gtr I
                                                       |--3--|
  Q  S S E Q  E S S   Q  E S S E.   S E E     Q     E  S S   S E   S S S S E
|------2------2-----|--------2-2------------|----------0h2p==0-----0-----------|
|-3--3---3-3--3-3-3-|-3--3-3-3-3----2-2-2---|------------------3-----3-----3---|
|-4--4-----4----4-4-|-4--4-4-4-4----2-2-2---|--------------------------0h2-----|
|-4--4-----4----4-4-|-4----4-4-4----2-2-2---|-0--0-(0)-------------------------|
|-------------------|-----------------------|----------------------------------|
|-------------------|-----------------------|----------------------------------|
|                                             E. S +H.
|
| Gtr III                                   Gtrs II, III
| W                   H        E  S S E S S   W
|-------------------|-----------------------|----------------------------------|
|-------------------|-----------------------|----------------------------------|
|-------------------|-----------------2-----|----------------------------------|
|-------------------|-------------x-x-2-x-x-|-0--------------------------------|
|-------------------|-------------x-x-0-x-x-|-0--------------------------------|
|-------------------|-------------x-x---x-x-|-0--------------------------------|


   E  S S E S   S   S S S S S S E   W
   |  | | | |   |   | | | | | | |
   /  / / / /   /   / / / / / / /

            |--3--|
   E  Q     S S   S E   S S S S E   W
|-----------0h2p==0-----0---------|-------------------------|
|-----3-------------3-----3-----3-|-------------------------|
|---------------------------0h2---|-------------------------|
|--0------------------------------|-------------------------|
|---------------------------------|-------------------------|
|---------------------------------|-------------------------|
|  W
|
| Gtrs II, III                      Gtr II
| +W                                E S S E S S E S S S S E
|---------------------------------|---------------------2---|
|---------------------------------|-3-3-3-3-3-3-3-3-3-3-2-2-|
|---------------------------------|-4-4-4-4-4-4-4-4-4-4-2-2-|
|-(0)-----------------------------|-4-4---4-4-4-4-4-4-4-2-2-|
|-(0)-----------------------------|-------------------------|
|-(0)-----------------------------|-------------------------|



  S S S S S S  a      +S    S  E E Q
|---7---7---7--------------10-10-------||
|-7---7---7---10b12==(12)r----12-------||
|-7---7---7----8b10==(10)r----11-------||
|-9---9---9----------------------------||
|--------------------------------------||
|--------------------------------------||


 Chorus
  Gtr II
       ~           ~~~~~~~~                   ~                  ~~~~~
  Q    Q    Q      Q                     Q    Q    Q             Q
|--------------------------------------|------------------------------|
|------3-----------3-------------------|------3------------------3----|
|------2-----------2-------------------|------2------------------2----|
|-0----0----0------0-------------------|-0----0----0-------------0----|
|-0---------0--------------------------|-0---------0------------------|
|-0---------0--------------------------|-0---------0------------------|
|
| Gtr III
|    ~~   ~~                                ~~   ~~
|                  |------3------|
| E  E E  E E  E  +S       +S   +S   E   E  E E  E E  E  a      +Q
|--------------------------------------|------------------------------|
|---15---15---17-(17)b19==(19)r(17)p15-|---15---15---17-17b19==(19)r--|
|----7----7----9--(9)b11==(11)r=(9)p=7-|----7----7----9--9b11==(11)r--|
|-0----0----0--------------------------|-0----0----0------------------|
|--------------------------------------|------------------------------|
|--------------------------------------|------------------------------|
|-Riff 1                              -||-Riff 2                     -|

w/Riff 1 -> Riff 2 x3
       ~           ~~~~~~~~                   ~                  ~~~~~
  Q    Q    Q      Q                     Q    Q    Q             Q
|--------------------------------------|------------------------------|
|------3-----------3-------------------|------3------------------3----|
|------2-----------2-------------------|------2------------------2----|
|-0----0----0------0-------------------|-0----0----0-------------0----|
|-0---------0--------------------------|-0---------0------------------|
|-0---------0--------------------------|-0---------0------------------|



        ~~          ~~~~~~~~                   ~                  ~~~~~
  Q     Q    Q      Q                     Q    Q    Q             Q
|---------------------------------------|------------------------------|
|------11----------11-------------------|------8------------------8----|
|------10----------10-------------------|------7------------------7----|
|-8-----8----8------8-------------------|-5----5----5-------------5----|
|-8----------8--------------------------|-5---------5------------------|
|-8----------8--------------------------|-5---------5------------------|



       ~           ~~~~~~~~                   ~                  ~~~~~
  Q    Q    Q      Q                     Q    Q    Q             Q
|--------------------------------------|------------------------------||
|------3-----------3-------------------|------3------------------3----||
|------2-----------2-------------------|------2------------------2----||
|-0----0----0------0-------------------|-0----0----0-------------0----||
|-0---------0--------------------------|-0---------0------------------||
|-0---------0--------------------------|-0---------0------------------||



 Verse 2
  D5
  Gtr V
  H.                Q       +H           H             W
  |                 |        |
  /                 /        /

  Gtr I                                                Gtr II
        |-3-|                      |-3-|
  E  Q  S S S E S S S S E    E E E S S S E S S S S E   E S S E S S E S S E S S
|-------0h2p0---0---------|--------0h2p0---0---------|---------2---2-2-2-2-2-2-|
|----3--------3---3-----3-|----3---------3---3-----3-|---3-3-----3-3-3-3-3-3-3-|
|-2-----------------0h2---|--------------------0h2---|-4-4-4-4-----4-4-4-4-4-4-|
|-0-----------------------|--0---0-------------------|-------------------------|
|-------------------------|--------------------------|-------------------------|
|-------------------------|--------------------------|-------------------------|
  W                          W


  Gtr I
                             |-3-|                      |-3-|
  W                     E Q  S S S E S S S S E    E  Q  S S S E S S S S E
|---------------------|---0--0h2p0---0---------|-----0--0h2p0---0---------|
|---------------------|---3--------3---3-----3-|-----3--------3---3-----3-|
|---------------------|---2--------------0h2---|-----2--------------0h2---|
|---------------------|-0----------------------|--0-----------------------|
|---------------------|------------------------|--------------------------|
|---------------------|------------------------|--------------------------|
|                       W                         W
|
| Gtr II
| E E E E E S S E S S   W                        +W
|---2-2-2-2-----------|------------------------|--------------------------|
|---3-3-3-3-------3-3-|------------------------|--------------------------|
|-4-4-4-4-4-2-2-2-2-2-|------------------------|--------------------------|
|-----------2-2-2-0-0-|-0----------------------|-(0)----------------------|
|-2---------0-0-0-0-0-|-0----------------------|-(0)----------------------|
|---------------------|-0----------------------|-(0)----------------------|
|
| Gtr III
| H       E S S E S S   W                        +W
|---------------------|------------------------|--------------------------|
|---------------------|------------------------|--------------------------|
|---------------2-----|------------------------|--------------------------|
|-----------x-x-2-x-x-|-0----------------------|-(0)----------------------|
|-----------x-x-0-x-x-|-0----------------------|-(0)----------------------|
|-----------x-x---x-x-|-0----------------------|-(0)----------------------|


  Gtr II
  E S S E S S S S E S S S S   E E E  a      +S    S  E E Q
|---------------------------|-7-7-7--------------10-10------||
|-3-3-3-3-3-3-3-3-3-3-3-3-3-|-7-7-7-10b12==(10)r-12-12------||
|-4-4-4-4-4-4-4-4-4-4-4-4-4-|-7-7-7--9b11===(9)r----11------||
|-4-4-4-4-4-4-4-4-4-4-4-4-4-|-9-9-9-------------------------||
|---------------------------|-------------------------------||
|---------------------------|-------------------------------||



 Chorus
Gtr III w/Riff 1
       ~           ~~~~~~~~
  Q    Q    Q      Q
|---------------------------------------|
|------3-----------3--------------------|
|------2-----------2--------------------|
|-0----0----0------0--------------------|
|-0---------0---------------------------|
|-0---------0---------------------------|


w/Riff 2 -> Riff 1
       ~                  ~~~~~       ~           ~~~~~~~~
  Q    Q    Q             Q      Q    Q    Q      Q
|------------------------------|--------------------------------------|
|------3------------------3----|------3-----------3-------------------|
|------2------------------2----|------2-----------2-------------------|
|-0----0----0-------------0----|-0----0----0------0-------------------|
|-0---------0------------------|-0---------0--------------------------|
|-0---------0------------------|-0---------0--------------------------|


w/Riff 2 -> Riff 1
       ~                  ~~~~~        ~~          ~~~~~~~~
  Q    Q    Q             Q      Q     Q    Q      Q
|------------------------------|---------------------------------------|
|------3------------------3----|------11----------11-------------------|
|------2------------------2----|------10----------10-------------------|
|-0----0----0-------------0----|-8-----8----8------8-------------------|
|-0---------0------------------|-8----------8--------------------------|
|-0---------0------------------|-8----------8--------------------------|


w/Riff 2 -> Riff 1
       ~                  ~~~~~       ~           ~~~~~~~~
  Q    Q    Q             Q      Q    Q    Q      Q
|------------------------------|--------------------------------------|
|------8------------------8----|------3-----------3-------------------|
|------7------------------7----|------2-----------2-------------------|
|-5----5----5-------------5----|-0----0----0------0-------------------|
|-5---------5------------------|-0---------0--------------------------|
|-5---------5------------------|-0---------0--------------------------|



                                 Bridge
       ~                  ~~~~~
  Q    Q    Q             Q       E E E E S S S S +E  S S
|------------------------------||--------------------------|
|------3------------------3----||--------------------------|
|------2------------------2----||---------------2-(2)------|
|-0----0----0-------------0----||---------------2-(2)------|
|-0---------0------------------||-4-4-4-4-2-3-4-------4-2--|
|-0---------0------------------||-4-4-4-4-2-3-4-------4-2--|
|
|    ~~   ~~
| E  E E  E E  E  a      +Q       E E E E S S S S +E  S S
|------------------------------||--------------------------|
|---15---15---17-17b19==(17)r--||--------------------------|
|----7----7----9--9b11===(9)r--||---------------2-(2)------|
|-0----0----0------------------||-4-4-4-4-2-3-4-2-(2)-4-2--|
|------------------------------||-4-4-4-4-2-3-4-------4-2--|
|------------------------------||--------------------------|


  E E E E S S S S +E  E   E E   E E     S   S S S +E  S S
|-----------------------|---------------------------------|
|-----------------------|-----------------------3-(3)-----|
|---------------2-(2)---|-4-4---4-4-----2---3-4-2-(2)-4-2-|
|---------------2-(2)---|-4-4---4-4-----2---3-4-------4-2-|
|-4-4-4-4-2-3-4-------4-|---------------------------------|
|-4-4-4-4-2-3-4-------4-|---------------------------------|
|
| E E E E S S S S +E  E   E S S E E    +Q          Q
|-----------------------|---------------------------------|
|-----------------------|---------------------------------|
|---------------2-(2)---|---------7b9==(7)r--------7------|
|-4-4-4-4-2-3-4-2-(2)-4-|-9-9-9-9-------------------------|
|-4-4-4-4-2-3-4-------4-|-9-9-9-9-------------------------|
|-----------------------|---------------------------------|


  E   E         E  E   S     S   S  S +E   E
|---------------------------------------------|
|-----------------------------------3-(3)-----|
|-4---4---------4--4---2-----3---4--2-(2)--4--|
|-4---4---------4--4---2-----3---4---------4--|
|---------------------------------------------|
|---------------------------------------------|
|
| S S S    +S  +E  S S S    +S  +E     S S E
|---------------------------------------------|
|-----9b10r(9)-(9)-7-9-9b10r(9)-(9)----7h9p7\-|
|---7-9b10r(9)-(9)-7-9-9b10r(9)-(9)----7h9p7\-|
|-9-7-----------------------------------------|
|---------------------------------------------|
|---------------------------------------------|














  Gtrs II, III
  E E E E S S S S +E  S S   E E E E S S S S +E  E   E E Q   S S E S S E
|-------------------------|-----------------------|-----3\------3-3-3---|
|-------------------------|-----------------------|-----3\------3-3-3---|
|---------------2-(2)-----|---------------2-(2)---|---------------------|
|-4-4-4-4-2-3-4-2-(2)-4-2-|-4-4-4-4-2-3-4-2-(2)-4-|-5-5-----5-5-------5-|
|-4-4-4-4-2-3-4-------4-2-|-4-4-4-4-2-3-4-------4-|-5-5-----5-5-------5-|
|-4-4-4-4-2-3-4-------4-2-|-4-4-4-4-2-3-4-------4-|---------------------|


  E S S S S S S S S S S S S S S   E E E S S E S S E S  S
|---5-5-5-5-------5-5-5-5-5-----|-----------6-----8------|
|---5-5-5-5-------5-5-5-5-5-----|-----------6------------|
|-------------------------------|-------6h7-7-7h8---8h10-|
|-7-------------------------7-7-|-8-8-8------------------|
|-7---------7-7-7-----------7-7-|-8-8-8------------------|
|-----------7-7-7---------------|-8-8-8------------------|


   E  S  S  S  S  S  S  S  S  S  S  S  S  S S
|-10-12p10----12p10----12p10----12p10----10---||
|-------------------------------------------0-||
|----------10-------10-------10-------10------||
|---------------------------------------------||
|---------------------------------------------||
|---------------------------------------------||



 Guitar Solo
         Gtr II
           E   E  E  E     S S   E       E  E     E  E E E E E S S E
|----------2---2--2--2-----2-2---2-------2--2-|---2--2-2-2-2-2-2-2-2-|
|----------3---3--3--3-----3-3---3-------3--3-|---3--3-3-3-3-3-3-3-3-|
|----------2---2--2--2-----2-2---2-------2--2-|---2--2-2-2-2-2-2-2-2-|
|---------------------------------------------|----------------------|
|---------------------------------------------|----------------------|
|---------------------------------------------|----------------------|
|
|Gtr IV
|                                    ~~~~~~~~~~~~~~~~
|  a      +E   E  E  S  S  E    +S   S  +Q       +W
|---------------------------------------------|----------------------|
|---------------------------------------------|----------------------|
|-12b14==(14)-14-14-14-14-14r==(12)p11-(11)---|-(11)-----------------|
|---------------------------------------------|----------------------|
|---------------------------------------------|----------------------|
|---------------------------------------------|----------------------|


   E               E             E    E               S  S   E       E  E
|--1---------------1-------------1----1---------------1--1---1-------1--1-|
|--3---------------3-------------3----3---------------3--3---3-------3--3-|
|--2---------------2-------------2----2---------------2--2---2-------2--2-|
|-------------------------------------------------------------------------|
|-------------------------------------------------------------------------|
|-------------------------------------------------------------------------|
|
|  E      a       +E    a       +E    E      a       +E     +S   S  +Q
|-------------------------------------------------------------------------|
|-------------------------------------------------------------------------|
|-12b14r(12)b14==(14)r(12)b14==(14)r-12b14r(12)b14==(14)r==(12)p10-(10)---|
|-------------------------------------------------------------------------|
|-------------------------------------------------------------------------|
|-------------------------------------------------------------------------|


    E  E E E   E  E      S S E    W                                     W
|---1--1-1-1---1--1------1-1-1-|--------------------------------------|-----------------|
|---3--3-3-3---3--3------3-3-3-|--3-----------------------------------|-----------------|
|---2--2-2-2---2--2------2-2-2-|--3-----------------------------------|-----------------|
|------------------------------|--3-----------------------------------|-5---------------|
|------------------------------|--1-----------------------------------|-5---------------|
|------------------------------|--------------------------------------|-5---------------|
|
|                                       ~~~~~                           ~~      ~~~
|  +H         +E.    +S  E   E    E     Q      E     E     S  S  +Q     Q.   E  Q.    E
|------------------------------|--------------------------------------|-----------------|
|------------------------------|--------------------------------------|-----------------|
|-(10)-------(10)---(10)s2-----|-12b14-12b14--12b14-12b14r12p10-(10)--|-9----9s15----14-|
|------------------------------|--------------------------------------|-----------------|
|------------------------------|--------------------------------------|-----------------|
|------------------------------|--------------------------------------|-----------------|


   E E E E   S   S  E        E E
|--2-2-2-2---2---2--2--------2-2-|
|--3-3-3-3---3---3--3--------3-3-|
|--2-2-2-2---2---2--2--------2-2-|
|--------------------------------|
|--------------------------------|
|--------------------------------|
|
|                            ~~
|                   |--3--|
|  H        +S   S  S  S  S  Q
|-14-------(14)-14-14h17-14-14---|
|--------------------------------|
|-14-----------------------------|
|--------------------------------|
|--------------------------------|
|--------------------------------|


   E           E     E    E     E    E       S S E    W
|--2-----------2-----2----2-----2----2-------2-2-2-|----------------------------|
|--3-----------3-----3----3-----3----3-------3-3-3-|----------------------------|
|--2-----------2-----2----2-----2----2-------2-2-2-|--3-------------------------|
|--------------------------------------------------|--3-------------------------|
|--------------------------------------------------|--1-------------------------|
|--------------------------------------------------|----------------------------|
|
|                    ~~~~~                                       ~~
|                                                             |--3--|
|  S      +S   S  S  E.      S  E.      +S   Q        E  +E   E  E  E  Q   E E
|--------------------------------------------------|----------------------------|
|-17pb18r(17)p15----17b19---15-17b19r==(17)-15-----|-17-(17)s15-15-15-15--15----|
|----------------16--------------------------------|----------------------------|
|--------------------------------------------------|----------------------------|
|--------------------------------------------------|----------------------------|
|--------------------------------------------------|----------------------------|


    W                             W                        E E E E  S S E E E
|------------------------------|------------------------|--2-2-2-2--2-2-2-2-2-|
|------------------------------|------------------------|--3-3-3-3--3-3-3-3-3-|
|------------------------------|------------------------|--2-2-2-2--2-2-2-2-2-|
|---5--------------------------|--3---------------------|---------------------|
|---5--------------------------|--3---------------------|---------------------|
|---5--------------------------|--3---------------------|---------------------|
|
|                  ~~~~~~
|            |--3--|
|   E.  +S   E  E  E  Q.   S S    Q   +S   S  E  Q   Q     H        H
|------------------------------|------------------------|----------14---------|
|-/13--(13)s12-12-12-12------8s|=11--(11)s10-10-10------|---------------------|
|------------------------------|--------------------10s=|=12s======14---------|
|------------------------------|------------------------|---------------------|
|------------------------------|------------------------|---------------------|
|------------------------------|------------------------|---------------------|


   E        E        E        E        E  E     S S  E
|--2--------2--------2--------2--------2--2-----2-2--2----||
|--3--------3--------3--------3--------3--3-----3-3--3----||
|--2--------2--------2--------2--------2--2-----2-2--2----||
|---------------------------------------------------------||
|---------------------------------------------------------||
|---------------------------------------------------------||
|
| Gtr IV
|                                      ~~
|  S     S  S     S  S     S  S     S  E  S  S  E    E
|-------14-------14-------14-------14-17-14----14---------||
|-17b19----17b19----17b19----17b19----------17------17b19r||
|---------------------------------------------------18b19r||
|---------------------------------------------------------||
|---------------------------------------------------------||
|---------------------------------------------------------||


 Bridge
    E  E E E S S S S +E  S S     E  E E E S S S S +E  E
|----------------------------|---------------------------|
|----------------------------|---------------------------|
|------------------2-(2)-----|------------------2-(2)----|
|------------------2-(2)-----|------------------2-(2)----|
|---4--4-4-4-2-3-4-------4-2-|---4--4-4-4-2-3-4-------4--|
|---4--4-4-4-2-3-4-------4-2-|---4--4-4-4-2-3-4-------4--|
|
|Gtr III
|   E  E E E S S S S +E  S S     E  E E E S S S S +E  E
|----------------------------|---------------------------|
|----------------------------|---------------------------|
|------------------2-(2)-----|------------------2-(2)----|
|---4--4-4-4-2-3-4-2-(2)-4-2-|---4--4-4-4-2-3-4-2-(2)-4--|
|---4--4-4-4-2-3-4-------4-2-|---4--4-4-4-2-3-4-------4--|
|----------------------------|---------------------------|
|
|   ~~~~~~~~~~~~~~~~~~~~~~~~~~~~~~~~
|  +W                           +W
|----------------------------|---------------------------|
|-(17)-----------------------|-(17)----------------------|
|-(18)-----------------------|-(18)----------------------|
|----------------------------|---------------------------|
|----------------------------|---------------------------|
|----------------------------|---------------------------|


  E E   E E     S   S S S +E  S S
|---------------------------------|
|-----------------------3-(3)-----|
|-4-4---4-4-----2---3-4-2-(2)-4-2-|
|-4-4---4-4-----2---3-4-------4-2-|
|---------------------------------|
|---------------------------------|
|
| E S S E E    +Q          Q
|---------------------------------|
|---------------------------------|
|---------7b9==(9)r--------7------|
|-9-9-9-9-------------------------|
|-9-9-9-9-------------------------|
|---------------------------------|


  E   E         E  E   S     S  S S +E    E    E E E E S S S S +E  S S
|--------------------------------------------|---------------------------|
|---------------------------------3-(3)------|---------------------------|
|-4---4---------4--4---2-----3--4-2-(2)---4--|---------------2-(2)-------|
|-4---4---------4--4---2-----3--4---------4--|-4-4-4-4-2-3-4-2-(2)-4-2---|
|--------------------------------------------|-4-4-4-4-2-3-4-------4-2---|
|--------------------------------------------|---------------------------|
|
| S S S    +S  +E  S S S    +S  S S  S  S E    E E E E S S S S +E  S S
|------------------------------------7--7-7\-|---------------------------|
|-----9b10r(9)-(9)-7-9-9b10r(9)-7----7--7-7\-|---------------------------|
|---7-9b10r(9)-(9)-7-9-9b10r(9)-7-9--7--7-7\-|---------------2-(2)-------|
|-9-7----------------------------------------|---------------2-(2)-------|
|--------------------------------------------|-4-4-4-4-2-3-4-------4-2---|
|--------------------------------------------|-4-4-4-4-2-3-4-------4-2---|


  Gtrs II, III
  E E S S E S S S S +E  E   S S S S S S E S S E E E   E S S S S E E S S S S E
|-------------------------|-----3-3-3-----------3---|---5-5-5-5-----5-5-5-5----|
|-------------------------|-----3-3-3-----------3---|---5-5-5-5-----5-5-5-5----|
|-----------------2-(2)---|-------------------0-----|--------------------------|
|-4-4-4-4-4-2-3-4-2-(2)-4-|-5-5---------5---5-----5-|-7---------------------7--|
|-4-4-4-4-4-2-3-4-------4-|-5-5-------5---5-------5-|-7---------7-7---------7--|
|-4-4-4-4-4-2-3-4-------4-|-------------------------|-----------7-7------------|


  E S S S S E S S S S S  S  S  S
|---6---6-----6-6-6-6------10-10-|
|-----6---6---6-6-6-6------------|
|---------------------7s10-10-10-|
|-8---------8--------------------|
|-8---------8--------------------|
|--------------------------------|


                                          Verse 3
   E  S  S  E  S  S  E  S  S  S  S  S S    E E Q  Q  Q
|-10-10-10----10-10----10-10-10-10-10---||-------------|
|---------------------------------------||---3---------|
|----------10-------10----------------0-||-----2--2--2-|
|-------------------------------------0-||-0---0--0--0-|
|---------------------------------------||-------------|
|---------------------------------------||-------------|


  E E E. S E. S E E   Q  Q  Q  E E   E E E E H      W
|-------------------|--------------|-------2------|------||
|-----------------3-|-3--3--3--3-3-|-3-3-3-3------|------||
|---2-2--2-2--2-2-4-|-4--4--4--4-4-|-4-4-4-4------|------||
|-0-0-0--0-0--0-0-4-|-4--4--4--4-4-|-4-4-4-4------|------||
|-------------------|--------------|--------------|------||
|-------------------|--------------|--------------|------||


 Out-Chorus
Gtr III w/ Riff 1 x2
  Gtr II
       ~           ~~~~~~~~                   ~           ~~~~~~~~
  Q    Q    Q      Q                     Q    Q    Q      Q
|--------------------------------------|--------------------------------------|
|------3-----------3-------------------|------3-----------3-------------------|
|------2-----------2-------------------|------2-----------2-------------------|
|-0----0----0------0-------------------|-0----0----0------0-------------------|
|-0---------0--------------------------|-0---------0--------------------------|
|-0---------0--------------------------|-0---------0--------------------------|


w/Riff 1 -> Riff 2
       ~           ~~~~~~~~                   ~                  ~~~~~
  Q    Q    Q      Q                     Q    Q    Q             Q
|--------------------------------------|-------------------------------|
|------3-----------3-------------------|------3------------------3-----|
|------2-----------2-------------------|------2------------------2-----|
|-0----0----0------0-------------------|-0----0----0-------------0-----|
|-0---------0--------------------------|-0---------0-------------------|
|-0---------0--------------------------|-0---------0-------------------|


w/Riff 1 x4
        ~~          ~~~~~~~~                   ~           ~~~~~~~~
  Q     Q    Q      Q                     Q    Q    Q      Q
|---------------------------------------|--------------------------------------|
|------11----------11-------------------|------8-----------8-------------------|
|------10----------10-------------------|------7-----------7-------------------|
|-8-----8----8------8-------------------|-5----5----5------5-------------------|
|-8----------8--------------------------|-5---------5--------------------------|
|-8----------8--------------------------|-5---------5--------------------------|



       ~           ~~~~~~~~                   ~           ~~~~~~~~
  Q    Q    Q      Q                     Q    Q    Q      Q
|--------------------------------------|--------------------------------------|
|------3-----------3-------------------|------3-----------3-------------------|
|------2-----------2-------------------|------2-----------2-------------------|
|-0----0----0------0-------------------|-0----0----0------0-------------------|
|-0---------0--------------------------|-0---------0--------------------------|
|-0---------0--------------------------|-0---------0--------------------------|


w/Riff 1 -> Riff 2
        ~~          ~~~~~~~~                   ~                  ~~~~~
  Q     Q    Q      Q                     Q    Q    Q             Q
|---------------------------------------|------------------------------|
|------11----------11-------------------|------2------------------2----|
|------10----------10-------------------|------2------------------2----|
|-8-----8----8------8-------------------|-2---------2------------------|

|-8----------8--------------------------|-0---------0------------------|
|-8----------8--------------------------|------------------------------|


w/Riff 1 x16
       ~           ~~~~~~~~                   ~           ~~~~~~~~
  Q    Q    Q      Q                     Q    Q    Q      Q
|--------------------------------------|---------------------------------------|
|------8-----------8-------------------|------6-----------6--------------------|
|------7-----------7-------------------|------5-----------5--------------------|
|-5----5----5------5-------------------|-3----3----3------3--------------------|
|-5---------5--------------------------|-3---------3---------------------------|
|-5---------5--------------------------|-3---------3---------------------------|



       ~           ~~~~~~~~                   ~           ~~~~~~~~
  Q    Q    Q      Q                     Q    Q    Q      Q
|--------------------------------------|--------------------------------------|
|------5-----------5-------------------|------4-----------4-------------------|
|------4-----------4-------------------|------3-----------3-------------------|
|-2----2----2------2-------------------|-1----1----1------1-------------------|
|-2---------2--------------------------|-1---------1--------------------------|
|-2---------2--------------------------|-1---------1--------------------------|



       ~           ~~~~~~~~                   ~           ~~~~~~~~
  Q    Q    Q      Q                     Q    Q    Q      Q
|--------------------------------------|--------------------------------------|
|------4-----------4-------------------|------3-----------3-------------------|
|------3-----------3-------------------|------2-----------2-------------------|
|-1----1----1------1-------------------|-0----0----0------0-------------------|
|-1---------1--------------------------|-0---------0--------------------------|
|-1---------1--------------------------|-0---------0--------------------------|



       ~           ~~~~~~~~                   ~           ~~~~~~~~
  Q    Q    Q      Q                     Q    Q    Q      Q
|--------------------------------------|--------------------------------------|
|------3-----------3-------------------|------3-----------3-------------------|
|------2-----------2-------------------|------2-----------2-------------------|
|-0----0----0------0-------------------|-0----0----0------0-------------------|
|-0---------0--------------------------|-0---------0--------------------------|
|-0---------0--------------------------|-0---------0--------------------------|



       ~           ~~~~~~~~                    ~~          ~~~~~~~~
  Q    Q    Q      Q                     Q     Q    Q      Q
|--------------------------------------|---------------------------------------|
|------3-----------3-------------------|------11----------11-------------------|
|------2-----------2-------------------|------10----------10-------------------|
|-0----0----0------0-------------------|-8-----8----8------8-------------------|
|-0---------0--------------------------|-8----------8--------------------------|
|-0---------0--------------------------|-8----------8--------------------------|



       ~           ~~~~~~~~                   ~           ~~~~~~~~
  Q    Q    Q      Q                     Q    Q    Q      Q
|--------------------------------------|--------------------------------------|
|------8-----------8-------------------|------3-----------3-------------------|
|------7-----------7-------------------|------2-----------2-------------------|
|-5----5----5------5-------------------|-0----0----0------0-------------------|
|-5---------5--------------------------|-0---------0--------------------------|
|-5---------5--------------------------|-0---------0--------------------------|



       ~           ~~~~~~~~                    ~~          ~~~~~~~~
  Q    Q    Q      Q                     Q     Q    Q      Q
|--------------------------------------|---------------------------------------|
|------3-----------3-------------------|------11----------11-------------------|
|------2-----------2-------------------|------10----------10-------------------|
|-0----0----0------0-------------------|-8-----8----8------8-------------------|
|-0---------0--------------------------|-8----------8--------------------------|
|-0---------0--------------------------|-8----------8--------------------------|



       ~           ~~~~~~~~                   ~           ~~~~~~~~
  Q    Q    Q      Q                     Q    Q    Q      Q
|--------------------------------------|--------------------------------------|
|------8-----------8-------------------|------3-----------3-------------------|
|------7-----------7-------------------|------2-----------2-------------------|
|-5----5----5------5-------------------|-0----0----0------0-------------------|
|-5---------5--------------------------|-0---------0--------------------------|
|-5---------5--------------------------|-0---------0--------------------------|



       ~                  ~~~~~       ~~~       ~~
  Q    Q    Q             Q      Q    Q    Q    Q
|------------------------------|--------------------|
|------3------------------3----|-----11--------11---|
|------2------------------2----|-----10--------10---|
|-0----0----0-------------0----|-8----8----8----8---|
|-0---------0------------------|-8---------8--------|
|-0---------0------------------|-8---------8--------|
|
|    ~~   ~~
| E  E E  E E  E  a      +Q      E E +Q   +H
|------------------------------|--------------------|
|---15---15---17-17b19==(17)r--|--------------------|
|----7----7----9--9b11===(9)r--|-3-3-(3)--(3)-------|
|-0----0----0------------------|-3-3-(3)--(3)-------|
|------------------------------|-1-1-(1)--(1)-------|
|------------------------------|--------------------|


      ~     ~                 ~~~~                ~~~~
  Q   Q  Q  Q    Q            Q     Q             Q
|--------------|---------------------------------------|
|-----8-----8--|--------------3-------------------3----|
|-----7-----7--|--------------2-------------------2----|
|-5---5--5--5--|-0------------0-----0-------------0----|
|-5------5-----|-0------------------0------------------|
|-5------5-----|-0------------------0------------------|
|
| H.        Q    E S     +S  +E  E +E  S     +S  +E  E
|--------------|---------------------------------------|
|--------------|---------------------------------------|
|--------------|---9b11=(11)r(9)p7-(7)-9b11=(11)r(9)p7-|
|--------------|---------------------------------------|
|-5------------|-0-------------------------------------|
|-5---------3--|-0-------------------------------------|


     ~             ~~~~~                 ~~     ~~
  Q  Q  Q          Q                 Q   Q  Q   Q
|----------------------------------|----------------|
|----3-------------3---------------|----11-----11---|
|----2-------------2---------------|----10-----10---|
|-0--0--0----------0---------------|-8---8--8---8---|
|-0-----0--------------------------|-8------8-------|
|-0-----0--------------------------|-8------8-------|
|
|                  |----3-----|
| H     E S    +S  S     +S  +S  E   W
|----------------------------------|----------------|
|----------------------------------|----------------|
|---------9b11r(9)-9b11=(11)r(9)p7-|-3--------------|
|----------------------------------|-3--------------|
|-0--------------------------------|-1--------------|
|-0--------------------------------|----------------|


  Gtrs II, III
     ~     ~       ~     ~       ~     ~       ~     ~
  Q  Q  Q  Q    Q  Q  Q  Q    Q  Q  Q  Q    Q  Q  Q  Q
|-------------|-------------|-------------|--------------|
|----2-----2--|----8-----8--|----6-----6--|----5-----5---|
|-2--2-----2--|----7-----7--|----5-----5--|----4-----4---|
|-2-----2-----|-5--5--5--5--|-3--3--3--3--|-2--2--2--2---|
|-0-----0-----|-5-----5-----|-3-----3-----|-2-----2------|
|-------------|-5-----5-----|-3-----3-----|-2-----2------|
  W             W             W             W


     ~     ~       ~     ~
  Q  Q  Q  Q    Q  Q  Q  Q    W          +W
|-------------|-------------|----------|--------*|
|----4-----4--|----4-----4--|-3--------|-(3)----*|
|----3-----3--|----3-----3--|-2--------|-(2)----*|
|-1--1--1--1--|-1--1--1--1--|-0--------|-(0)----*|
|-1-----1-----|-1-----1-----|-0--------|-(0)----*|
|-1-----1-----|-1-----1-----|-0--------|-(0)----*|
  W             W



Comments about this tab

No comments/corrections found. Add your own



2005 ZMG, Inc.- All Right Reserved - Privacy Statement