Rockin Tabs Home

 :: Home > Tabs > A > Aerosmith > Walk This Way

Aerosmith - Walk This Way


This tab has not yet been rated for accuracy.Sorry, but you must be logged in to rate this tab so we can tell which songs you've already voted on, which will help prevent cheating.
Click here to log-in, or you can click here to register.
(Registration is free)


Click here for a plain text version of this song (for better printing)

Add this tab to your list of favorite tabs




#----------------------------------PLEASE NOTE---------------------------------#
#This file is the author's own work and represents their interpretation of the #
#song. You may only use this file for private study, scholarship, or research. #
#------------------------------------------------------------------------------#


Walk This Way
Aerosmith

Gtr I (E A D G B E) - 'Joe Perry - Rhythm'
Gtr II (E A D G B E) - 'Brad Whitford - Rhythm'
Gtr III (E A D G B E) - 'Joe Perry - Lead'
Gtr IV (E A D G B E) - 'Brad Whitford - Rhythm Fills'

Intro
  Q=120
 4/4
  Gtr I
  Wx2           S S S S S S S S E E E E   S S S S S S S S e S S q
|------------||-------------------------|---------------------------|
|------------||-------------------------|---------------------------|
|------------||-------------------------|---------------------------|
|------------||-------2---------2-------|-------2---------2-----2---|
|------------||-0-1-2-----0-1-2---------|-0-1-2-----0-1-2-----------|
|------------||-------------------0---x-|-------------------3p0-----|


                                             A5
  Gtr II
  W                        H               E Q.
                                             |
                                             /

  Gtr I
  S S S S S S S S E E Q    S S S S S S S S E Q.
|------------------------|------------------------||
|------------------------|------------------------||
|------------------------|-------------------2----||
|-------2---------2------|-------2---------2-2----||
|-0-1-2-----0-1-2--------|-0-1-2-----0-1-2---0----||
|-------------------0----|------------------------||


   Verses
    $
    Gtrs I, II
    PM---------------------------------------------
    S S S  S  +S   S  S  S S  S  S  S  S  S  S  S
||------------------------------------------------|
||o-----------------------------------------------|
||------------------------------------------------|
||---------------------------10-------------------|
||o-------10-(10)-10-12p10------10-10-13-10-12-10-|
||--8-8-8------------------8----------------------|
 |-Riff A                              end Riff A-|

Riff A x6


 1.
 --------------------------------|
  S S S  S  +S   S  S  S S  S  E Q
|------------------------------------||
|------------------------------------||
|------------------------------------||
|--------------------------10----7\--||
|-------10-(10)-10-12p10------10-7\--||
|-8-8-8------------------8-------5\--||
|-Rhy Fill 1                       --|

  PM-------------------------
  S S S S S S S S E E S S E
|---------------------------|
|---------------------------|
|---------------------------|
|-------2---------2---------|
|-0-1-2-----0-1-2-----------|
|-------------------0-x-x-x-|


 -----------------------------------------------------|
  S S S S S S S S e E S S E   S S S S S S S S E E S S E
|---------------------------|---------------------------|
|---------------------------|---------------------------|
|---------------------------|---------------------------|
|-------2---------2-------2-|-------2---------2---------|
|-0-1-2-----0-1-2-----------|-0-1-2-----0-1-2-----------|
|-------------------0-3p0---|-------------------0-x-x-x-|



                            2.
  Gtr I
  PM--------------|          PM-----------------------|
  S S S S S S S S E Q.       S S S  S  +S   S  S  S S  S E    Q
|-------------------------||---------------------------------------||
|------------------------o||---------------------------------------||
|-------------------------||---------------------------------------||
|-------2---------2-7/----||--------------------------10-----10\---||
|-0-1-2-----0-1-2---7/---o||-------10-(10)-10-12p10----------10\---||
|-------------------5/----||-8-8-8------------------8--------------||
|-Fill 1                --|
|
| Gtr II                 Gtr II
| PM--------------|          PM-----------------------|
| S S S S S S S S E Q.       S S S  S  +S   S  S  S S  S S S  Q
|-------------------------||---------------------------------------||
|------------------------o||---------------------------------------||
|-------------------2-----||---------------------------------------||
|-------2---------2-2-----||--------------------------10-----13\---||
|-0-1-2-----0-1-2---0----o||-------10-(10)-10-12p10----------13\---||
|-------------------------||-8-8-8------------------8----8-8-------||


   Chorus
      ~~~~                      ~~~~~~~~~~                       ~~~~
      Q       Q       E   E  S  E.    +Q       Q       E   E  S  E.
||--(11)---------------------------|----------------------11-11-11--|
||o-(10)-----------------10-10-10--|-(10)-----------------10-10-10--|
||------------------------8--8--8--|--(8)---------------------------|
||---------------------------------|--------------------------------|
||o--------------------------------|--------------------------------|
||---------------------------------|--------------------------------|
|
|     E.  S  +E   E  +H                E.  S  +E   E  +H
||---------------------------------|--------------------------------|
||o--------------------------------|--------------------------------|
||---------------------------------|--------------------------------|
||---------------------------------|--10--12-(12)-13-(13)-----------|
||o--10--12-(12)-13-(13)-----------|---8---8--(8)--8--(8)-----------|
||----8---8--(8)--8--(8)-----------|--------------------------------|


                                  1.
 ~~~~~~                       ~~~~~~~~~~                       ~~~
   +Q       Q       E   E  S  E.    +Q       Q       E   E  S  E.
|-(11)---------------------------|----------------------11-11-11----||
|-(10)-----------------10-10-10--|-(10)-----------------10-10-10---o||
|-----------------------8--8--8--|--(8)-----------------------------||
|--------------------------------|----------------------------------||
|--------------------------------|---------------------------------o||
|--------------------------------|----------------------------------||
|
|   E.  S  +E   E  +H                E.  S  +E   E  +H
|--------------------------------|----------------------------------||
|--------------------------------|---------------------------------o||
|--------------------------------|----------------------------------||
|--------------------------------|--10--12-(12)-13-(13)-------------||
|--10--12-(12)-13-(13)-----------|---8---8--(8)--8--(8)------------o||
|---8---8--(8)--8--(8)-----------|----------------------------------||


                                   Guitar Solo
  2.
                         To Coda-|
                                 Gtr III
                              ~~~
    Q       Q       E   E  S  E.     Q             Q           S  T  T  S  S  S  E.
|----------------------11-11-11--||-11b12-------------------------8h11p=8-----8--------------|
|-(10)-----------------10-10-10--||---------------------------------------11----11b13========|
|---8----------------------------||----------------------------------------------------------|
|--------------------------------||----------------------------------------------------------|
|--------------------------------||----------------------------------------------------------|
|--------------------------------||----------------------------------------------------------|
|
|                                Gtrs I, II
|                                    PM-------------------------------------------------------
|   E.  S   E   E  +H                S    S S  S  +S   S  S  S S  S     S  S  S  S      S  S
|--------------------------------||----------------------------------------------------------|
|--------------------------------||----------------------------------------------------------|
|--------------------------------||----------------------------------------------------------|
|--10--12-(12)-13-(13)-----------||------------------------------10--------------------------|
|---8---8---8---8--(8)-----------||-----------10-(10)-10-12p10---------10-10-13-10-----12-10-|
|--------------------------------||--8----8-8------------------8-----------------------------|

w/Riff A x2
                                                  ~~~
   +S   +S  S  S   S   S  S  S  S  S  S  S     S  E.
|-----------8-----------------------------------------------|
|-(11)r(11)---11---8----------------------------------------|
|---------------------11p10p=8-10----10-10b12-----8---------|
|---------------------------------10------------------------|
|-----------------------------------------------------------|
|-----------------------------------------------------------|



   e    E         +E      +S   +S  S  S  S  S  S  S  S  S
|---------------------------------------------------------|
|------10b11=====(10)----(10)r(10)-8-----8----------------|
|------------------------------------10----11p10p=8-10p=8-|
|-10------------------------------------------------------|
|---------------------------------------------------------|
|---------------------------------------------------------|


w/Rhy Fill 1
                                                 ~~
   S S  S  S   S   S  S  S      +E      +S   +S  Q
|-----------------------------------------------------||
|-----------------------11b13==(11)----(11)r(11)------||
|-10p8-11p10p==8--10p=8-------------------------------||
|------------------------------------------------7----||
|-----------------------------------------------------||
|-----------------------------------------------------||



  Gtrs I, II
  PM--------------------------------------------------|
  S S S S S S S S E E S S E   S S S S S S S S e E S S E
|---------------------------|----------------------------|
|---------------------------|----------------------------|
|---------------------------|----------------------------|
|-------2---------2---------|-------2---------2-------2--|
|-0-1-2-----0-1-2-----------|-0-1-2-----0-1-2------------|
|-------------------0-x-x-x-|-------------------0-3p0----|




  PM--------------------------| |-Gtr 2 plays Fill 1
  S S S S S S S S E S S S S S S   S S S S S S S S E Q.     D.S. al Coda
|-------------------------------|------------------------||
|-------------------------------|------------------------||
|-------------------------------|-------------------2----||
|-------2---------2-------------|-------2---------2-2----||
|-0-1-2-----0-1-2---------------|-0-1-2-----0-1-2---0----||
|-------------------0-x-x-x-x-x-|------------------------||


 Guitar Solo 2
  &
w/Riff A x4
  Gtr III
  S S S  S   S   S  S  S S  S  S  S  S  S    +S  +T  T
|------------5-----------------------------------------|
|------------------------------------------------------|
|-5-5-9p=8-------8p=7p=5-7p=5--7p=5--7--7b8==(7)r(7)p5-|
|------------------------------------------------------|
|------------------------------------------------------|
|------------------------------------------------------|



  T T T T S  S   S   S  S  S +Q.                  +E
|-------3p0------0----------------------------------------|
|---------------------------------------------------------|
|-0h3h5------5-------0--2--2-(2)b3r===============(2)-----|
|---------------------------------------------------------|
|---------------------------------------------------------|
|---------------------------------------------------------|



                    |--3---| |--3---|  |-3--|  |--3---|  |-3--|
  E   S  S   S   S  S S    S S S    S  E    S  S S    S  E    S
|---------------------------------------------------------------|
|----------------------------------------------8p5-------5------|
|----------------5--8p5------8p5-------5----8---------8-------8p|
|--------7s==8-------------8--------8---------------------------|
|-3---3---------------------------------------------------------|
|---------------------------------------------------------------|



  S S S  S   S    +S    S  S    +S    S  E     Q
|----------------------------------------8----------------||
|---------------------------------------------------------||
|-7p5-7p=5---7b8==(7)r--5--7b8==(7)r--5-------------------||
|---------------------------------------------------------||
|----------------------------------------------0----------||
|---------------------------------------------------------||



 Outro - Solo
                                                      ~~~~~
  H               Q   Q      +E    E   Q       E E   +Q
|--------------------------|--------------------------------|
|--------------------------|--------------------------------|
|---------------------2b4r=|=(2)-----------------4b6r(4)b7--|
|--------------------------|--------------------------------|
|--------------------------|--------------------------------|
|--------------------------|--------------------------------|
|
| PM----------------|         PM---------------|
| S S S S S S S S E E Q       S  S S S S S S S E Q.
|--------------------------|--------------------------------|
|--------------------------|--------------------------------|
|--------------------------|---------------------2----------|
|-------2---------2--------|---------2---------2-2----------|
|-----------0-1-2----------|-------------0-1-2---0----------|
|-0-3-4-------------0------|--0--3-4------------------------|
|-Riff B                                         end Riff B-|

Gtr I & II w/Riff B to fade
                      ~~~                           ~~~~~
  H               Q   Q      H               E E   +Q
|--------------------------|--------------------------------|
|--------------------------|--------------------------------|
|---------------------2b4--|-------------------4b6r(4)b7----|
|--------------------------|--------------------------------|
|--------------------------|--------------------------------|
|--------------------------|--------------------------------|



                       ~~~~~~~~~~~~~~~                        ~~~~~~~~~
  H               Q    Q         +E     E   Q       E  E     +Q
|-----------------------------|---------------------------------------|
|-----------------------------|---------------------------------------|
|---------------------14b16===|=(14)r-----------------16b18r(16)b19===|
|-----------------------------|---------------------------------------|
|-----------------------------|---------------------------------------|
|-----------------------------|---------------------------------------|



 ~~~~~~~~                                                          ~~~~~~~
   +E      E   Q       Q    Q         +E     E   Q       E  E     +Q
|----------------------------------|----------------------------------------|
|----------------------------------|----------------------------------------|
|-(16)r\-------------------14pb16r=|=(14)\-----------------16b18r(16)b19----|
|----------------------------------|----------------------------------------|
|----------------------------------|----------------------------------------|
|----------------------------------|----------------------------------------|



   S  S  S S S  E        +S   S  S  E    S   E     +S
|-12---------------------------------------------------|
|----15p12-----15pb17r==(15)p12----15b17----15b17r(15)p|
|-------------------------------15---------------------|
|------------------------------------------------------|
|------------------------------------------------------|
|------------------------------------------------------|
|
| Gtr IV
|  H                          Q          Q
|------------------------------------------------------|
|------------------------------------------------------|
|----------------------------------------7\------------|
|----------------------------------------6\------------|
|----------------------------------------7\------------|
|------------------------------------------------------|
|-Riff C

   S  S  S  S  E.        +S   S  S  Q.
|-------------------------------------------|
|-12-------------------------------14-------|
|----15p14p12-14b15r====(14)-12----14-------|
|-------------------------------14-14-------|
|-------------------------------------------|
|-------------------------------------------|
|
|  H                          Q         Q
|-------------------------------------------|
|-------------------------------------------|
|--------------------------------------12\--|
|--------------------------------------11\--|
|--------------------------------------12\--|
|-------------------------------------------|
                                 end Riff C-|
                   ~~~~~
   S  S  S  S  S  E.        S  S  S  S  S   S  S  S
|----------12-16-----------12--------------12----------|
|-------12-------15b17--------15p12-----------15p14p===|
|-12h14-----------------------------12h13--------------|
|------------------------------------------------------|
|------------------------------------------------------|
|------------------------------------------------------|
|
|  H                        Q           Q
|------------------------------------------------------|
|------------------------------------------------------|
|---------------------------------------7\-------------|
|---------------------------------------6\-------------|
|---------------------------------------7\-------------|
|------------------------------------------------------|
|-Riff D
         
                      |---3----|
   S  S     S  S     +S   S    S  S  S  E  Q.
|--------------------------------------------------|
|-12-------12-----------------------------14-------|
|----14b15----14b15r(14)p12------14----12-14-------|
|-----------------------------14----14----14-------|
|--------------------------------------------------|
|--------------------------------------------------|
|
|  H                                    E  E   Q
|--------------------------------------------------|
|--------------------------------------------------|
|-----------------------------------------12--12\--|
|-----------------------------------------11--11\--|
|-----------------------------------------12--12\--|
|--------------------------------------------------|
                                        end Riff D-|
                                           ~~~

w/Riff D x5
   S  S  S  S      +Q         +E    E     Q
|-------12-15b17==(15)-------(15)r-15b17-15---|
|---------------------------------------------|
|-12h14---------------------------------------|
|---------------------------------------------|
|---------------------------------------------|
|---------------------------------------------|

                                           ~~~~~~
   S  S  S  S  S  S  S      S      +S   S  Q         +E
|-12-------15-17-17-17pb18-17pb19r(17)p15-15b17r====(15)\-|
|----15s17------------------------------------------------|
|---------------------------------------------------------|
|---------------------------------------------------------|
|---------------------------------------------------------|
|---------------------------------------------------------|



    S  S  S  S  S  S  S  S     +S   S  S  S  S   S  S  S
|-----12-------------------------------------------------|
|--------15p12-------------------------------------------|
|-/13----------15p14p12-14b16r(14)p12----12--------------|
|-------------------------------------14----14p=12-------|
|--------------------------------------------------14-13-|
|--------------------------------------------------------|


   S  T  T  S  S  S   S   S  S  S  S  Q          +E
|------------------------------------------------------|
|------------------------------------------------------|
|------------------------------------12b14======(12)r\-|
|------------------------------------------------------|
|-12-11h12p11----12------11h12-11----------------------|
|-------------12----(12)----------12-------------------|


   E.      +S  S S S S S    +S  +S  S S  S S S
|--------------------------------------------------|
|--------------------------------------------------|
|-2b4r====(2)p0-----2-2b4==(2)r(2)p0--------2b4====|
|---------------2--------------------2--2----------|
|--------------------------------------------------|
|--------------------------------------------------|



  S +S  S S S S S S   +S  S  Q.
|------------------------------------|
|------------------------------------|
|-2r(2)p0---0-2---2b4r(2)p0--2-------|
|---------2------------------2-------|
|----------------------------0-------|
|------------------------------------|



   S S S a S S S S   S S S   S S S  S S S
|----0-------0-------------------------------|
|-/3---0-3s5---0-3b4p0-0-3b4---0-3p=0-0-3b4--|
|--------------------------------------------|
|--------------------------------------------|
|--------------------------------------------|
|--------------------------------------------|



  S S S S S E     +T  T S S  Q.
|---0--------------------------------|
|-0-0-3p0-0-3b5r==(3)p0--------------|
|-----------------------2-0--2-------|
|----------------------------2-------|
|----------------------------0-------|
|------------------------------------|



  |----3----|
  S   +S    S E   S E     +T  T E E +S  S S S   S S S S   +S  S S S E  Q      E
|---------------------------------------------|------------------------------------|
|---------------------------------------------|------------------------------------|
|-2b4r(2)p==0-------2b4r==(2)p0---------------|------------------------2------2/---|
|-------------2-----------------2-2-(2)-0h2p0-|-----------------2-0-2--2-----------|
|---------------------------------------------|-2p1p0------------------0-----------|
|---------------------------------------------|-------3b4-(3)-0--------------------|


w/Riff C
      ~~~~~~~~~~~~                                                           ~~~~~
   S  E.      +S   S  E    S  E.    S   E.    S  E.      S  E.      Q        Q
|------------------------------------------|---------------------------------------|
|-12--------------12------12-------12------|-12---------12---------15b17----15b17--|
|----12------(12)----12------12--------12--|----12---------12----------------------|
|------------------------------------------|---------------------------------------|
|------------------------------------------|---------------------------------------|
|------------------------------------------|---------------------------------------|



   S  S     S  S  E.        +S   S  E.     Q
|----------------------------------------------*|
|-12-------12----15b17r====(15)-12-------------*|
|----14b16----12-------------------14b16-------*|
|----------------------------------------------*|
|----------------------------------------------*|
|----------------------------------------------*|



Comments about this tab

No comments/corrections found. Add your own



2005 ZMG, Inc.- All Right Reserved - Privacy Statement