Rockin Tabs Home

 :: Home > Tabs > B > Blink-182 > I Miss You

Blink-182 - I Miss You


This tab has been rated a 1.00 out of 5 for accuracy.
(1 vote)
Sorry, but you must be logged in to rate this tab so we can tell which songs you've already voted on, which will help prevent cheating.
Click here to log-in, or you can click here to register.
(Registration is free)


Click here for a plain text version of this song (for better printing)

Add this tab to your list of favorite tabs




#----------------------------------PLEASE NOTE---------------------------------#
#This file is the author's own work and represents their interpretation of the #
#song. You may only use this file for private study, scholarship, or research. #
#------------------------------------------------------------------------------#


Blink 182
I Miss You

Standard Tuning

intro
E|--------|
B|--------|
G|-4/88-8-|
D|-x/xx-x-|
A|-2/66-6-| 12x
E|--------|

verse
E|--------|
B|--------|
G|-4/88-8-|
D|-x/xx-x-|
A|-2/66-6-| 12x
E|--------|

chorus
E|---------------------------------------------------------------------|
B|---------------------------------------------------------------------|
G|-4-4-44-6-6-6-66-8-8-8-88-6-6-6-66-----------------4-4-4-44-4-4-4-44-|
D|-x-x-xx-x-x-x-xx-x-x-x-xx-x-x-x-xx-6-6-66-8-8-88-8-x-x-x-xx-x-x-x-xx-|
A|-2-2-22-4-4-4-44-6-6-6-66-4-4-4-44-x-x-xx-x-x-xx-x-2-2-2-22-2-2-2-22-| 2x
E|-----------------------------------4-4-44-6-6-66-6-------------------|

verse
E|--------|
B|--------|
G|-4/88-8-|
D|-x/xx-x-|
A|-2/66-6-| 12x
E|--------|

chorus
E|---------------------------------------------------------------------|
B|---------------------------------------------------------------------|
G|-4-4-44-6-6-6-66-8-8-8-88-6-6-6-66-----------------4-4-4-44-4-4-4-44-|
D|-x-x-xx-x-x-x-xx-x-x-x-xx-x-x-x-xx-6-6-66-8-8-88-8-x-x-x-xx-x-x-x-xx-|
A|-2-2-22-4-4-4-44-6-6-6-66-4-4-4-44-x-x-xx-x-x-xx-x-2-2-2-22-2-2-2-22-| 2x
E|-----------------------------------4-4-44-6-6-66-6-------------------|

verse
E|--------|
B|--------|
G|-4/88-8-|
D|-x/xx-x-|
A|-2/66-6-| 12x
E|--------|

chorus
E|---------------------------------------------------------------------|
B|---------------------------------------------------------------------|
G|-4-4-44-6-6-6-66-8-8-8-88-6-6-6-66-----------------4-4-4-44-4-4-4-44-|
D|-x-x-xx-x-x-x-xx-x-x-x-xx-x-x-x-xx-6-6-66-8-8-88-8-x-x-x-xx-x-x-x-xx-|
A|-2-2-22-4-4-4-44-6-6-6-66-4-4-4-44-x-x-xx-x-x-xx-x-2-2-2-22-2-2-2-22-| 2x
E|-----------------------------------4-4-44-6-6-66-6-------------------|



Comments about this tab

No comments/corrections found. Add your own



2005 ZMG, Inc.- All Right Reserved - Privacy Statement