Rockin Tabs Home

 :: Home > Tabs > S > Slipknot > Duality

Slipknot - Duality


This tab has not yet been rated for accuracy.Sorry, but you must be logged in to rate this tab so we can tell which songs you've already voted on, which will help prevent cheating.
Click here to log-in, or you can click here to register.
(Registration is free)


Click here for a plain text version of this song (for better printing)

Add this tab to your list of favorite tabs




#----------------------------------PLEASE NOTE---------------------------------#
#This file is the author's own work and represents their interpretation of the #
#song. You may only use this file for private study, scholarship, or research. #
#------------------------------------------------------------------------------#


Slipknot - Duality
Tabbed By: 6Metal6Head6
Submitted by: Himmelfarht
Email: this_is_the_prophecy@hotmail.com

Tuning: Drop B (B F# B E G# C#)

This tab was made by 6Metal6Head6, so props to them for it!

Key
.=Palm Mute
*=Pinched Harmonic
B=Bend
T=Tremolo Pick(pick fast..)

"Push my finger's into my"
Bass
|----------------------|
|----------------------|
|----------------------|
|----------------------|  X2
|----------------------|
|-7------3-----2-1-----|

Gtr 1 Riff 1
|----------------------------------------------|
|----------------------------------------------|      X2
|----------------------------------------------|
|----------------------------------------------| This isn't the actual amount
|----------------------------------------------| you hit them this is just example
|-7-7-7-7-7-7-7-7--3-3-3-3-3--2-2-2-1-1-1-1-1--| of the frets you strike.
  . . . . . . . .  . . . . .  . . . . . . . .

Gtr 1&2 Riff 2
|-----------------------------------------------|
|-----------------------------------------------|
|-----------------------------------------------|    X2
|-----------------------------------------------|  
|-----------------------------------------------|  
|-7-7-7-7-7-7-7-7--3-3-3-3-3---2-2-2-1-1-1-1-1--|

Gtr 1&2  Riff 3
|----------------------------------|
|----------------------------------|
|----------------------------------|
|-0-0-0---0-0---0-0-0--0-1-0-1-----|
|-0-0-0---0-0---0-0-0--0-1-0-1-3*B-|
|-0-0-0---0-0---0-0-0--0-1-0-1-----|
  . . .   . .   . . .  . . . .

Gtr 1&2  Riff 4
|----------------------------------|
|----------------------------------|
|----------------------------------|
|-0-0-0---0-0---0-0-0--0-1-0-1-----|
|-0-0-0---0-0---0-0-0--0-1-0-1-----|
|-0-0-0---0-0---0-0-0--0-1-0-1--3*-|
  . . .   . .   . . .  . . . .

Gtr1  Riff 5A
|-----------------------------|
|-----------------------------|
|-----------------------------|
|-----------------------------|
|-----------------------------|
|-7T--10T--5T--7T--3T--5T--1T-|
  .    .   .   .   .   .   .
Gt1  Riff 5B
|-----------------------------|
|-----------------------------|
|-----------------------------|
|-----------------------------|
|-----------------------------|
|-7T--10T--5T--7T--3T--5T--0T-|
  .    .   .   .   .   .   .

Gtr2 does some *** Riff 6


gtr 1&2 Riff 7
|-----------------------------------|
|-----------------------------------|
|-----------------------------------|
|-3-3-3-3--3-3-3-3--3-3-3-3---------|
|-3-3-3-3--3-3-3-3--3-3-3-3---------|
|-3-3-3-3--3-3-3-3--3-3-3-3--2-2-3*-|


Gtr 1 Riff 8
|-----------------------------------------------|
|-----------------------------------------------|
|-----------------------------------------------|   
|-7-7-7-7-7-7-7-7--3-3-3-3-3---2-2-2-1-1-1-1-1--| 
|-7-7-7-7-7-7-7-7--3-3-3-3-3---2-2-2-1-1-1-1-1--|
|-7-7-7-7-7-7-7-7--3-3-3-3-3---2-2-2-1-1-1-1-1--|

Gtr 2 Riff 9
|--------------------|
|--------------------|
|--0-3-3-3-5-5-5-8-7-|
|--------------------|
|--------------------|
|--------------------|

Riff 5A

Gtr1 Riff 10
|-------------------|
|-------------------|
|-------------------|
|-------------------|
|-------------------|
|-7T--10T--5T--7T---|
  .    .   .   .   

Riff 11
|---------|
|---------|
|---------|
|-3-5-1-0-|
|-3-5-1-0-|
|-3-5-1-0-|

Riff 5A
Riff 5B
Riff 5A & Riff 6
Riff 5B & Riff 6

Riff 7

Riff 8 & Riff 9

Riff 3
Riff 4
Riff 3
Riff 4

Gtr 1&2  Riff 12
|----------------------------------|
|----------------------------------|
|----------------------------------|
|-1-1-1---1-1---1-1-1--1-0-1-0-----|
|-1-1-1---1-1---1-1-1--1-0-1-0-3*B-|
|-1-1-1---1-1---1-1-1--1-0-1-0-----|
  . . .   . .   . . .  . . . .

Gtr 1&2  Riff 13
|----------------------------------|
|----------------------------------|
|----------------------------------|
|-1-1-1---1-1---1-1-1--1-0-1-0-----|
|-1-1-1---1-1---1-1-1--1-0-1-0-----|
|-1-1-1---1-1---1-1-1--1-0-1-0--3*-|
  . . .   . .   . . .  . . . .

Riff 7
Riff 8 & Riff 9
Riff 3
Riff 4 End



Comments about this tab

No comments/corrections found. Add your own



2005 ZMG, Inc.- All Right Reserved - Privacy Statement