Rockin Tabs Home

 :: Home > Tabs > E > Evanescence > My Immortal

Evanescence - My Immortal


This tab has been rated a 5.00 out of 5 for accuracy.
(1 vote)
Sorry, but you must be logged in to rate this tab so we can tell which songs you've already voted on, which will help prevent cheating.
Click here to log-in, or you can click here to register.
(Registration is free)


Click here for a plain text version of this song (for better printing)

Add this tab to your list of favorite tabs




#----------------------------------PLEASE NOTE---------------------------------#
#This file is the author's own work and represents their interpretation of the #
#song. You may only use this file for private study, scholarship, or research. #
#------------------------------------------------------------------------------#


Group: Evanescence
Song: My Immortal
Album: Fallen


Intro:

E-----------------------------------------------------------
B-----2--------5----------2--------5------------------------
G----2--2-----6--6-------2--2-----6--6----------------------
D---2----2---6----6-----2----2---6----6---------------------
A--0--------4------4---0--------4------4--------------------
E-----------------------------------------------------------


Verse:
A                     C#m
i'm so tired of being here

A                             C#m
Suppressed by all my childish fears

A
And if you want to leave

C#m
i wish that you would just leave

A
Because your presence still lingers here

C#m                   F#m
And it won't leave me alone

C#m                        F#m
These wounds won't seem to heal

C#m                   F#m
This pain is just too real 

C#m                       E
there's just so much that time can not erase


Chorus:

F#m        D        E        C#m
when you cried i'd wipe away all of your tears

F#m          D          E        C#m
when you'd scream i'd fight away all of your fears

F#m       D         E           C#m
and i've held your hand through all of these years

F#m      D     E             A C#m A C#m
but you still have all of me


Verse:

A                        C#m
You used to captivate me by your resonating light

A                    C#m
Now I'm bound by the life you left behind

A
Your face it haunts

C#m
My once pleasant dreams

A
Your voice it chased away

C#m
All the sanity in me

C#m                        F#m
These wounds won't seem to heal

C#m                   F#m
This pain is just too real 

C#m                       E
there's just so much that time can not erase


Chorus


Bridge:

D             E            E/C#               D6
i've tried so hard to tell myself that you're gone

      D                 E/C#
and though you're still with me

D6          E              F#m D E C#m F#m D E C#m
i've been alone all along


Chorus


Outro (same as intro) :

E-----------------------------------------------------------
B-----2--------5----------2--------5------------------------
G----2--2-----6--6-------2--2-----6--6----------------------
D---2----2---6----6-----2----2---6----6---------------------
A--0--------4------4---0--------4------4--------------------
E-----------------------------------------------------------



Comments about this tab

No comments/corrections found. Add your own



2005 ZMG, Inc.- All Right Reserved - Privacy Statement