Rockin Tabs Home

 :: Home > Tabs > L > Limp Bizkit > Behind Blue Eyes

Limp Bizkit - Behind Blue Eyes


This tab has been rated a 3.33 out of 5 for accuracy.
(3 votes)
Sorry, but you must be logged in to rate this tab so we can tell which songs you've already voted on, which will help prevent cheating.
Click here to log-in, or you can click here to register.
(Registration is free)


Click here for a plain text version of this song (for better printing)

Add this tab to your list of favorite tabs




#----------------------------------PLEASE NOTE---------------------------------#
#This file is the author's own work and represents their interpretation of the #
#song. You may only use this file for private study, scholarship, or research. #
#------------------------------------------------------------------------------#


BEHIND BLUE EYES
Limp Bizkit
Tabbed By: Yann

Comments: Ain't that a nice lil song? I think it's 
kind of somethin' like that...

Intro:
     Em           G            D            D
E:---------0------------0------------0------------0-----
B:------0---0-0----------3-3------3---3-3------3---3-3--
G:-----------0-------0----0------2-2---2------2-2---2---
D:-----2------------0-0--------0------------0-----------
A:----2-------------------------------------------------
E:--0-------------3-------------------------------------




    C            C             A            A
E:--------0------------0-------------0------------0-----
B:------3--3-3-------3--3-3--------0--0-0-------0--0-0--
G:-----0----0-------0----0--------2----2-------2----2---
D:----2------------2-------------2------------2---------
A:--3------------3-------------0------------0-----------
E:------------------------------------------------------


Verse:


Em                     G                
No one knows what it's like

          D          D
To be the bad man

          C         C
To be the sad man

A
Behing blue eyes

Em                     G                
No one knows what it's like

      D          D
To be hated

          C         C
To be fated

A
To telling only lies

Chorus:
C              D              G
But my dreams, they aren't as empty

C                D        Em
As my conscience seems to be

       Bm           C
I have hours, only lonely

           D                      A
My love is vengeance that's never free

Verse:
Em
No one knows... and blablabla...



Comments about this tab

No comments/corrections found. Add your own



2005 ZMG, Inc.- All Right Reserved - Privacy Statement