Rockin Tabs Home

 :: Home > Tabs > C > Coheed and Cambria > Velourium Camper I: Faint of Hearts

Coheed and Cambria - Velourium Camper I: Faint of Hearts


This tab has not yet been rated for accuracy.Sorry, but you must be logged in to rate this tab so we can tell which songs you've already voted on, which will help prevent cheating.
Click here to log-in, or you can click here to register.
(Registration is free)


Click here for a plain text version of this song (for better printing)

Add this tab to your list of favorite tabs




#----------------------------------PLEASE NOTE---------------------------------#
#This file is the author's own work and represents their interpretation of the #
#song. You may only use this file for private study, scholarship, or research. #
#------------------------------------------------------------------------------#


The Velourium Camper I: Faint of Hearts
Coheed and Cambria
In Keeping Secrets of Silent Earth: 3
2003 Equal Vision Records

P.M. = Palm Mute  = *
A.H. = Artificial Harmonics = *
Slide Up   = /
Slide Down = \
Bend Up    = ^
Vibrato    = ~

Intro (Guitar #2)

e|----------------------------------------------------------------|
B|----------------------------------------------------------------|
G|----------------------------------------------------------------|
D|--9---9---12-12-12-11-------------------------------12-9^-------|
A|--7-7-7---10-10-10-9---12--9-10-12----9----10---10--10----9~----|
E|----0------------------10----------10---10-8--0-8------------10-|
                                                    A.H. *  *

Continued
          Repeat Intro                          Repeat Intro
e|--------------|             |-----------------------|
B|--------------|             |-----------------------|
G|--------------|  Ending     |-----------------------|  Ending
D|--------------|   #1&3      |-----------------------|    #2	
A|--------------|             |-----------------------|
E|--0-0-7-0-7-0-|             |--0-0-7-7-0-7-10-9-7-9-|
P.M.* * * * * *

Ending four is the same as the first, but with Guitar #1 playing the following:

e|-----------|
B|-----------|
G|-----------|
D|------5----|
A|--5-7---7\-|
E|-----------|

Intro (Guitar #1) - Played During Intro

e|--/12----10----------------------------------|
B|------------12-10-12-8-10-7-8----------------|
G|------------------------------9-----7--9-9-7-|
D|---------------------------------------------|
A|---------------------------------------------|
E|---------------------------------------------|

Continued

e|--------15-17-15--15----15------------------------------------------|
B|---15-17--------17----17--15---15-----------------------------------|
G|/16------------------------------14---------------------------------|
D|-----------------------------------17-17-16-14-16-------16-17-------|
A|-------------------------------------------------17-/17-------/19---|
E|--------------------------------------------------------------------|



Guitar #2
                                                                   (x3)
e|------------------------------------------------------------------|
B|------------------------------------------------------------------|
G|----------------------------------5-5-5-5-5-5-5-5-5-5-5-5-5-5-5-5-|  
D|--5-5-5-5-5-5-5-5-2-2-2-2-2-2-2-2-5-5-5-5-5-5-5-5-5-5-5-5-5-5-5-5-|
A|--5-5-5-5-5-5-5-5-2-2-2-2-2-2-2-2-3-3-3-3-3-3-3-3-3-3-3-3-3-3-3-3-|
E|--3-3-3-3-3-3-3-3-0-0-0-0-0-0-0-0---------------------------------|

Guitar #1 - played during above riff
                              (x2)
e|----7------7------7------7---|  |-7-------7-------7-------7---------|
B|------8------8------8------8-|  |--8-7-8---8-7-8---8-7-8---8-7-8----|
G|--5------5------5------5-----|  |-----------------------------------|
D|-----------------------------|  |-----------------------------------|
A|-----------------------------|  |-----------------------------------|
E|-----------------------------|  |-----------------------------------|

Guitar #2

e|--------------------------------------------------------------------|
B|--------------------------------------------------------------------|
G|--2-2-2-2-2-2-2-2-2-2-2-2-2-2-2-2-9-9-9-9-9-9-9-9-7-7-7-7-7-7-7-7-5-| 
D|--2-2-2-2-2-2-2-2-2-2-2-2-2-2-2-2-9-9-9-9-9-9-9-9-7-7-7-7-7-7-7-7-5-|  
A|--0-0-0-0-0-0-0-0-0-0-0-0-0-0-0-0-7-7-7-7-7-7-7-7-5-5-5-5-5-5-5-5-3-|
E|--------------------------------------------------------------------|

Guitar #1 - played during above riff

e|--------------------------------------------------------------------|
B|----------------------------------9-9-9-9-9-9-9-9-7-7-7-7-7-7-7-7---|
G|----------------------9-------9---9-9-9-9-9-9-9-9-7-7-7-7-7-7-7-7-5-|
D|--7-9-7-9-7-9-7-9-7-9---9-7-9---9---------------------------------5-|
A|------------------------------------------------------------------3-|
E|--------------------------------------------------------------------|
                               P.M. * * * * * * * * * * * * * * * *
Guitar #2
(x2)
e|--------3h5p3-----------3h5p3-----------------------------------------|
B|--------------5-3-------------5-3-------------------------------------|
G|----------------------------------5-----------------------9--9--7--7--|
D|--5--5------------5--5------------5-----------------------9--9--7--7--|
A|--5--5------------5--5------------3--3-3-3--3-3-3--3-3-3--7--7--5--5--|
E|--3--3------------3--3-----------------------------------------------
     A.H. * * * * *       * * * * *P.M.* * *  * * *  * * *







Guitar #1 - played during above riff
                                                                      (x2)
e|----------------------------------------------------------------------|
B|----------------------------------------------------------------------|
G|----------------------------------5-----------------------9--9--7--7--|
D|--5--5--5h7p5-----5--5--5h7p5-----5-----------------------9--9--7--7--|
A|--5--5--------5-3-5--5--------5-3-3--3-3-3--3-3-3--3-3-3--7--7--5--5--|
E|--3--3------------3--3------------------------------------------------|
                                  P.M. * * *  * * *  * * *

Guitar #2
                                   (x9)
e|-----------------------------------|
B|-----------------------------------|
G|------------------------7-5--4h5p4-|
D|--5-7-9---7-----7-9-5-7------------|
A|--------9---7-9--------------------|
E|-----------------------------------|

Guitar #1 - played during above riff
                           (x3)
e|---------------------------|
B|---------------------------|
G|---------------------------| P.M. All
D|---------------------------|
A|-7-7-------9-------10------|
E|-5-5-(x16)-7-(x16)-8-(x16)-|

Guitar #2
                                      (x4)    (x5)
e|--------|           |-----------------|-------|
B|--------|           |-----------------|-------|
G|--4h5p4-| Bunch of  |--4-5-7--5--4----|--2^~~-|
D|--------| times     |---------------5-|-------|
A|--------|           |-----------------|-------|
E|--------|           |-----------------|-------|

Guitar #1

e|------------------------|
B|------------------------|
G|--2--2--2------5--4-----|
D|--2--2--2-3-5--5--4--5--|
A|--0--0--0-3-5--3--2--5--|
E|----------1-3--------3--|



continued

e|------------------------------------------------------|
B|------------------------------------------------------|
G|------------------------------------------------------|
D|--3---------------------------------------------------|
A|--3---------------------------------------------------|
E|--1--1-1-1--1-1-1--1-1-1--1-1-1--1-1-1--1-1-1--1-1-1--|
  P.M. * * *  * * *  * * *  * * *  * * *  * * *  * * *

Guitar #1
                  (3x)
e|------------------|
B|------------------|
G|------------------|
D|-------0----------|
A|-----0---3-2-0----|
E|--1------------3--|

Guitar # 1 Solo (the lower sounding part)
(x2)
e|---------------------------------------------------|	
B|---------------------------------------------------|
G|----4----7-----------------------------------------|
D|--5---5------5-------5--7--5------------------7�5--|
A|-----------5---3--3------------7--5-------5--------|
E|--------------------------------------3------------|
     A.H.  *     *                      *         *

Guitar #1 Solo Cont...

e|--------------------------|	
B|--------------------------|
G|--------------------------|
D|--------------------------|
A|--7--5--3--------------5--|
E|-----------7--5--7--3-----|
   A.H.   *

Guitar #2 Solo  (the higher part)
(x2)
e|-----------------------------------------------------|	
B|----------15-----------------------------------------|
G|----14----------12-------12-14-12-------------14-12--|
D|-12----12----12----10-10----------14-12----12--------|
A|----------------------------------------10-----------|
E|-----------------------------------------------------|
    A.H.    *         *                    *        *






Guitar #2 Solo Cont...

e|--------------------------------------------------------------|	
B|--------------------------------------------------------------|
G|--------------------------------------------------------------|
D|-14-12-10-------------12--------------------------------------|
A|----------14-12-14-10-----------------------------------------|
E|--------------------------------------------------------------|
   A.H.  *

Guitar #2
This is the high pitched thinger that�s kinda hard to here after the solo

e|--------------------------------------------------------------|	
B|-15p14------15p14---------------------------------------------|
G|-------14-12------14-12-11----------11-14--14p12h14-----------|
D|---------------------------14-12-14---------------------------|
A|--------------------------------------------------------------|
E|--------------------------------------------------------------|

Cont... 
                     
e|-------------------------------------|-------|---------------|
B|-------------------------------------|-------|--------------|
G|-14p12h14-14p12h14-16-14-12----------|-12-14-|-14h15p14-12-9|
D|---------------------------h14p12h14-|-------|--------------|
A|-------------------------------------|-------|--------------|
E|-------------------------------------|-------|--------------|
                 First time end on this ^

The rest is easy... you figure it out



Comments about this tab

No comments/corrections found. Add your own



2005 ZMG, Inc.- All Right Reserved - Privacy Statement