Rockin Tabs Home

 :: Home > Tabs > C > Creed > One Last Breath

Creed - One Last Breath


This tab has not yet been rated for accuracy.Sorry, but you must be logged in to rate this tab so we can tell which songs you've already voted on, which will help prevent cheating.
Click here to log-in, or you can click here to register.
(Registration is free)


Click here for a plain text version of this song (for better printing)

Add this tab to your list of favorite tabs




#----------------------------------PLEASE NOTE---------------------------------#
#This file is the author's own work and represents their interpretation of the #
#song. You may only use this file for private study, scholarship, or research. #
#------------------------------------------------------------------------------#


Band: Creed
Song: One Last Breath
Album: Weathered
Tabbed By: VictorHinder
Tuning: EADGBe


I want you guys to play the right thing, so voila:

Intro (Fingerpicked)
Play it 3 times :
               D                    quite fast
-2-----5-----0h2---------------------------------|
------------------3--------2-3-3h5---5p3p2-3-----|
---------------------2---------------------------|
-0--0-----0--------------------------------------|
------------------------0----------0---------0---|
-------------------------------------------------|

 Bm                     G           D
------------------------------------------3--2--|
-------3-----2h3--------------------3-----------|
-4----------------4-----------0--------2--------|
--------------------4------0-----0--------------|
-2--2-----2-------------------------------------|
------------------------3-----------------------|

                                A(don't pluck the first "4")
-2-----3-----2--0h2p0--------------------------------|
-----------------------3--------------2/2h3p2--------|
-----------------------------------2---------h4----0-|
-0--0-----0---------------------2----------------4---|
--------------------------4--0-----------------------|
-----------------------------------------------------|

 B                        G
--------------2-----------------------3--------|
-----------2-----2-----------------------3-----| whole thing
-------4------------4--------------0--------0--|     3 X
----4------------------0--------0-------------0|
-2---------------------------2-----------------|
--------------------------3--------------------|

Chorus:
Play these chords twice: (let it sound softly)
    D    F#   Bm   G
e|--2---(0)---0---(0)----|
b|--3----0----3----0-----|
g|--2----3----4----3-----|    2 X
d|--0----4----4----5-----|
a|-------4----2----5-----|
e|-------2---------3-----|

Play Intro 3 times.

The second time the chorus is distorted,
play this three times:
   D    F#   B    G               	   B   G    
e|--------------------|			e|--------|
b|--------------------|			b|--------|
g|-7---------4--------|  4 X  end with:	g|-4------|  3 X
d|-7----4----4----5---|			d|-4---5--|
a|-5----4----2----5---|			a|-2---5--|
e|------2---------3---|			e|-----3--|


Then Bridge:
   Em    G     D     D     A     Bm    G     G    
|--0--|--3--|--2--|--2--|--0--|--2--|--3--|--3--|
|--0--|--0--|--3--|--3--|--2--|--3--|--0--|--0--|
|--0--|--0--|--2--|--2--|--2--|--4--|--0--|--0--|   2X
|--2--|--0--|--0--|--0--|--2--|--4--|--0--|--0--|
|--2--|--2--|-----|-----|--0--|--2--|--2--|--2--|
|--0--|--3--|-----|-----|-----|-----|--3--|--3--|
        

Soft Chorus:
    D    F#   Bm   G		            D    F#   B    G        
e|--2---(0)---0---(0)----| 			e|--------------------|
b|--3----0----3----0-----|			b|--------------------|
g|--2----3----4----3-----|  2X then distorted g|-7---------4--------|  4 X
d|--0----4----4----5-----|			d|-7----4----4----5---|
a|-------4----2----5-----|			a|-5----4----2----5---|
e|-------2---------3-----|			e|------2---------3---|

Outro: 
                                         quite hard to figure out
e|-2---5---0h2----------------------------------------------------------3~~~~-|
b|-------------3------2/3--3h5--5p3s2-3--------3---2h3----------------3---(3)-|
g|---------------2-------------------------4-----------4------------0---------|
d|-0-0---0-----------------------------------------------0------0-------------|
a|-----------------0----------0----------0-2-2---2------------2---2-----------|
e|----------------------------------------------------------3-----------------|

Lyrics: 
Please come now I think I'm falling
I'm holding on to all I think is safe
It seems I found the road to nowhere
And I'm trying to escape
I yelled back when I heard thunder
But I'm down to one last breath
And with it let me say
Let me say

Hold me now
I'm six feet from the edge and I'm thinking
That maybe six feet
Ain't so far down

I'm looking down now that it's over
Reflecting on all of my mistakes
I thought I found the road to somewhere
Somewhere in His grace
I cried out heaven save me
But I'm down to one last breath
And with it let me say
Let me say

Hold me now
I'm six feet from the edge and I'm thinking
That maybe six feet
Ain't so far down

Sad eyes follow me
But I still believe there's something left for me
So please come stay with me
'Cause I still believe there's something left for you and me
For you and me 
For you and me

Hold me now
I'm six feet from the edge and I'm thinking 
That maybe six feet
Ain't so far down

Please come now I think I'm falling
I'm holding on to all I think is safe


I'm 100% sure this tab is right. Have fun with it.



Comments about this tab

No comments/corrections found. Add your own



2005 ZMG, Inc.- All Right Reserved - Privacy Statement