Rockin Tabs Home

 :: Home > Tabs > S > Sum 41 > Heart Attack

Sum 41 - Heart Attack


This tab has not yet been rated for accuracy.Sorry, but you must be logged in to rate this tab so we can tell which songs you've already voted on, which will help prevent cheating.
Click here to log-in, or you can click here to register.
(Registration is free)


Click here for a plain text version of this song (for better printing)

Add this tab to your list of favorite tabs




#----------------------------------PLEASE NOTE---------------------------------#
#This file is the author's own work and represents their interpretation of the #
#song. You may only use this file for private study, scholarship, or research. #
#------------------------------------------------------------------------------#


Song: Heart Attack
Band: Sum 41
Tabber:  Bradley Bauer (marshallesp)
Email:  espmarshall@hotmail.com

I can't find a tab of this song so I decided to do it.  I'm sure it's
99% right except i'm not exactly sure about the chorus...it just doesn't sound
quite right.  So if anyone has an idea on how to make it sound more like the cd
just write it in the comments.

Email me if you want to say somethin...and if you like Sum 41 look at my tabs of
Fat Lip and In Too Deep. Could you rate my tabs please, so that it looks like
people actually look at these tabs and i'm not wastin my time


Intro: Guitar 1 (keep repeating until needed)
e------------------------------------------------------------------------------
b------------------------------------------------------------------------------
g-----11-----------11-----------11----------11---------------------------------
d--11---11-11---11---11-11---11---11-11--11---11-11----------------------------
a-9--9----9--9-8--8----8--8----------------------------------------------------
D---------------------------9--9----9--99--9----9--9-11-----------------------


Intro: Guitar 2
e------------------------------------------------------------------------------
b------------------------------------------------------------------------------
g-11111111-11111111----------11111111-11111111---------------------------------
d-11111111-11111111-99999999-11111111-11111111-9999-11-11-11-11----------------
a-9-9-9-9--8-8-8-8--99999999-9-9-9-9--8-8-8-8--9999-11-11-11-11----------------
D-------------------99999999-------------------9999-11-11-11-11----------------
pm........ ........ ........ ........ ........ ....


Chorus: Guitar 1
e------------------------------------------------------------------------------
b------------------------------------------------------------------------------
g-11111111-9999----------1111111------------------------------------------------
d-11111111-9999-9999--X3-1111111-11111111-9999----------------------------------
a-9-9-9-9--7777-9999-----9-9-9-9-11111111-9999----------------------------------
D---------------9999-------------11111111-9999----------------------------------


Chorus: Guitar 2
e------------------------------------------------------------------------------
b------------------------------------------------------------------------------
g-1111111-9999-4444-----1111111------------------------------------------------
d-x-x-x-x-xxxx-xxxx-X3--1111111-11111111-9999----------------------------------
a-9-9-9-9-7777-2222-----9-9-9-9-11111111-9999----------------------------------
D-------------------------------11111111-9999----------------------------------


PreVerse Thing:  Guitar 1 and/or 2
e-----------------------------------------------------------------------------------------
b-----------------------------------------------------------------------------------------
g-1111-1111111-1111-1111111-88-8888---------1111-11111111-1111-1111111-88-8888------------
d-1111-1111111-1111-1111111-88-8888---------1111-11111111-1111-1111111-88-8888------------
a-9-9--9-9-9-9-8-8--8-8-8-8-66-6666-------8-9-9--9-9-9-9--8-8--8-8-8-8-66-6666------------
D-----------------------------------8-9-8--------------------------------------8-9-8-9-11-


2nd Verse Part 1: Guitar 1 (keep repeating until needed)
e------------------------------------------------------------------------------
b------------------------------------------------------------------------------
g-----11-----------11-----------11----------11---------------------------------
d--11---11-11---11---11-11---11---11-11--11---11-11----------------------------
a-9--9----9--9-8--8----8--8----------------------------------------------------
D---------------------------9--9----9--99--9----9--9---------------------------


2nd Verse Part 2: Guitar 1
e------------------------------------------------------------------------------
b------------------------------------------------------------------------------
g-111111-111111---10--11-------------------------------------------------------
d-111111-111111----------999-999-111111-111111---------------------------------
a-9-9-9--9-9-9--88--88---999-999-111111-111111---------------------------------
D------------------------999-999-111111-111111---------------------------------
pm....   ....   ..  ..   ..  ..  ....   ....


e------------------------------------------------------------------------------
b------------------------------------------------------------------------------
g-111111-111111---10--11-------------------------------------------------------
d-111111-111111----------999-999-999-999-9--11-11-11-11------------------------
a-9-9-9--9-9-9--88--88---999-999-999-999-9--11-11-11-11------------------------
D------------------------999-999-999-999-9--11-11-11-11------------------------
pm....   ....   ..  ..   ..  ..  ..  ..


Chorus: Guitar 1
e------------------------------------------------------------------------------
b------------------------------------------------------------------------------
g-11111111-9999-4444----1111111------------------------------------------------
d-11111111-9999-4444-X3-1111111-11111111-9999----------------------------------
a-9-9-9-9--7777-2222----9-9-9-9-11111111-9999----------------------------------
D-------------------------------11111111-9999----------------------------------


Chorus: Guitar 2
e------------------------------------------------------------------------------
b------------------------------------------------------------------------------
g-1111111-9999-4444-----1111111------------------------------------------------
d-x-x-x-x-xxxx-xxxx-X3--1111111-11111111-9999----------------------------------
a-9-9-9-9-7777-2222-----9-9-9-9-11111111-9999----------------------------------
D-------------------------------11111111-9999----------------------------------

Interlude:  Guitar 1 X5
e------------------------------------------------------------------------------
b------------------------------------------------------------------------------
g-1111-1111-1111-1111-1111111--------------------------------------------------
d-x-x--x-x--x-x--x-x--x-x-x-x--------------------------------------------------
a-9-9--9-9--9-9--9-9--9-9-9-9--------------------------------------------------
D------------------------------------------------------------------------------

Interlude:  Guitar 2 X2
e------------------------------------------------------------------------------
b------------------------------------------------------------------------------
g--------4-4-------------------------------------------------------------------
d-44-42-24-42-8989-4-----------------------------------------------------------
a-44-42-22-22-8989-4-----------------------------------------------------------
D-44-42-2---2-8989-4-----------------------------------------------------------


3rd Verse: Guitar 1 (keep repeating until needed)
e------------------------------------------------------------------------------
b------------------------------------------------------------------------------
g-----11-----------11-----------11----------11---------------------------------
d--11---11-11---11---11-11---11---11-11--11---11-11----------------------------
a-9--9----9--9-8--8----8--8----------------------------------------------------
D---------------------------9--9----9--99--9----9--9---------------------------

3rd Verse: Guitar 2
e------------------------------------------------------------------------------
b------------------------------------------------------------------------------
g-11111111-1111111-------------------------------------------------------------
d-11111111-1111111-9-11-11-11-11-----------------------------------------------
a-9-9-9-9--8-8-8-8-9-11-11-11-11-----------------------------------------------
D------------------9-11-11-11-11-----------------------------------------------
pm........ .......


Chorus: Guitar 1
e------------------------------------------------------------------------------
b------------------------------------------------------------------------------
g-11111111-9999-4444----1111111------------------------------------------------
d-11111111-9999-4444-X3-1111111-11111111-9999----------------------------------
a-9-9-9-9--7777-2222----9-9-9-9-11111111-9999----------------------------------
D-------------------------------11111111-9999----------------------------------


Chorus: Guitar 2
e------------------------------------------------------------------------------
b------------------------------------------------------------------------------
g-1111111-9999-4444-----1111111------------------------------------------------
d-x-x-x-x-xxxx-xxxx-X3--1111111-11111111-9999----------------------------------
a-9-9-9-9-7777-2222-----9-9-9-9-11111111-9999----------------------------------
D-------------------------------11111111-9999----------------------------------


Interlude:  Guitar 2 
e------------------------------------------------------------------------------
b------------------------------------------------------------------------------
g--------4-4-------------------------------------------------------------------
d-44-42-24-42-8989-4-----------------------------------------------------------
a-44-42-22-22-8989-4-----------------------------------------------------------
D-44-42-2---2-8989-4-----------------------------------------------------------


Interlude:  Guitar 1
e------------------------------------------------------------------------------
b------------------------------------------------------------------------------
g-1111-1111-1111-1111-1111111--------------------------------------------------
d-x-x--x-x--x-x--x-x--x-x-x-x---end on-4---------------------------------------
a-9-9--9-9--9-9--9-9--9-9-9-9----------4---------------------------------------
D--------------------------------------4---------------------------------------



Comments about this tab

No comments/corrections found. Add your own



2005 ZMG, Inc.- All Right Reserved - Privacy Statement