Rockin Tabs Home

 :: Home > Tabs > R > Rage Against The Machine > Bombtrack

Rage Against The Machine - Bombtrack


This tab has not yet been rated for accuracy.Sorry, but you must be logged in to rate this tab so we can tell which songs you've already voted on, which will help prevent cheating.
Click here to log-in, or you can click here to register.
(Registration is free)


Click here for a plain text version of this song (for better printing)

Add this tab to your list of favorite tabs




#----------------------------------PLEASE NOTE---------------------------------#
#This file is the author's own work and represents their interpretation of the #
#song. You may only use this file for private study, scholarship, or research. #
#------------------------------------------------------------------------------#


Rage Against The Machine
"Bombtrack"

This tab is 100% accurate. When you see a tab by The Phreak, it is 
pure quality. It doesn't get any better than this! 
dude.
/:Hammer On
():Ghost note
Intro--------------------------------------------------------------
-------------------------------------------------------------------
----------------------------------------------------------0--------
-----2---0-------0--------------------2---0-------0---2------------
-------------2-------2---0--------------------2--------------------
-0----------------------------3---0--------------------------------

-------------------------------------------------------------------
-------------------------------------------------------------------
-------------------------------------------------------------------
-----2---0-------0--------------------2---0--------0---------------
-------------2-------2---0---------------------2-------2-----------
-0-----------------------------3---0-----------------------3----2--

-------------------------------------------------------------------R
--------------------------------------------------------Hammer-On--E
-----------------------------------------------------------(0 2)-0-P
-----2---0--------0-------------------2---0---------0---2----------E
-------------2-------2---0---------------------2-------------------A
-0-----------------------------3---0-------------------------------T

-------------------------------------------------------------------
-------------------------------------------------------------------
-------------------------------------------------------------------
-----2---0--------0------------------------------------------------
-------------2-------2---0-----------------------------------------
-0-----------------------------3---0-------------------------------

Main-Riff----------------------------------------------------------
-------------------------------------------------------------------
-------------------------------------------------6---5---4---------
-------4---------------4---2--------4------------6---5---4---------X4
-------------------------------------------------4---3---2---------
-0--2-----0--2--0--2----------0--2-----0--2--0---4---3---2---------

Riff-1-------------------------------------------------------------R
-------------------------------------------------------------------E
-------------------------------------------------------------------P
-------------------------Bend-1/2----------------4---2-------------E
--------------------------------------------------------4--3--2----A
-2--2--0--2--2-----2----2----5----2--2--0--2--0------------------5-T

-------------------------------------------------------------------
-------------------------------------------------------------------
-------------------------------------------------------------------
---------------------------Bend-Full-------------16---14-----------
---------------------------------------------------------16-15-14--
-2--2--0--2--2-----2----2----5-(5)-2-2---0-2---0-----------------17

-------------------------------------------------------------------
-------------------------------------------------------------------
-------------------------------------------------------------------
-------------------------------------------------------------------
----------------------------Bend 1/2-------------------------------
-2--2--0--2--2-----2----2-----5-------2--2--0---2--0---------------

Riff 1

-------------------------------------------------------------------
------------------------0------------------------------------------
------------------------0------------------------------------------
--------------------------------------------4--2-------------------
--------------------------------------------------4--3--2----------
-2--2--0--2--2---2---2------2--2--0--2--0-------------------5------
                                                        Bend Full

Riff 1

Main Riff

Riff 1

------------------------------------------------5--5--5--5--5--5--5-5
------------------------------------------------5--5--5--5--5--5--5-5
---------------------------------------------------------------------
-----------------------Bend-Full-------------------------------------
---------------------------5-----------------------------------------
-2--2--0--2--2----2---2-----------2--2--0--2--0----------------------

Riff 1

---------------------------------------------------------------------
---------------------------------------------------------------------
---------------------------------------------------------------------
---------------------------------------------------------------------
---------------------------------------------------------------------
-2--2---0---2---2---(2)----------------------------------------------
                    Bend with wammy


Main Riff

Bad-Ass-Riff----------------------------------------------------------
----------------------------------------------------------------------
----------------------------------------x--x--x--x--------------------
----------------------------------------x--x--x--x--------------------
---------------B 1/4--------------------x--x--x--x--------------------
-2-/-0---2-/-0---5----2-/-0--2-/-0--2---------------------------------

-----------------------------------------------------------------------R
-----------------------------------------------------------------------E
-----------------------------------------------------------------------P
-----------------------------------------------------------------------E
----------------1/4b-----------------4-/-0--3-/-0--2-/-0---------------A
-2-/-0---2-/-0---5----2-/-0--2-/-0-------------------------------------T

--------------------------------------------Full-Bend-and-hold----------
------------16----------------------16--14---17--17--17--17--17-(17)----
--x--14---x-16--x-14--x-16--x-14--x-16----------------------------------
--x--14---x-16--x-14--x-16--x-14--x-16----------------------------------
------------------------------------------------------------------------
------------------------------------------------------------------------

----------------------------14--17--16--17--16----------(16)------------
-----------16----------------------------------1/2-bend-----------------
--x-14---x-16---x-14--x-16----------------------------------------------
--x-14---x-16---x-14--x-16----------------------------------------------
------------------------------------------------------------------------
------------------------------------------------------------------------

-(16)----Vibrato---------Vibrato---------Vibrato-------------------(16)-
------------------------------------------------------------------------
------------------------------------------------------------------------
------------------------------------------------------------------------
------------------------------------------------------------------------
------------------------------------------------------------------------

--Bend-Full-------------------------------------------------------------
-17--17--17--17--17-----------------------------------------------------
-16--16--16--16--16-----xxxxxxxxxxxxxxxxxxxxxxxxxxxxx-------------------
------------------------------------------------------------------------
------------------------------------------------------------------------
------------------------------------------------------------------------

------------------------------------------------------------------------
------------------------------------------------------------------------
-14-14-14----14-14-14----14-14-14----14-14-14----14-14-14----14-14-14---
----------16----------16----------16----------16----------16----------16
------------------------------------------------------------------------
------------------------------------------------------------------------

-------------------------------------------------------------------------
-------------------------------------------------------------------------
--6---5---4---4----3--2--------------------------------------------------
--6---5---4---4----3--2--------------------------------------------------
--4---3---2---2----2--0--------------------------------------------------
--4---3---2---2----1-----------------------------------------------------Enjoy!



Comments about this tab

No comments/corrections found. Add your own



2005 ZMG, Inc.- All Right Reserved - Privacy Statement