Rockin Tabs Home

 :: Home > Tabs > U > U2 > With Or Without You

U2 - With Or Without You


This tab has been rated a 4.00 out of 5 for accuracy.
(1 vote)
Sorry, but you must be logged in to rate this tab so we can tell which songs you've already voted on, which will help prevent cheating.
Click here to log-in, or you can click here to register.
(Registration is free)


Click here for a plain text version of this song (for better printing)

Add this tab to your list of favorite tabs




#----------------------------------PLEASE NOTE---------------------------------#
#This file is the author's own work and represents their interpretation of the #
#song. You may only use this file for private study, scholarship, or research. #
#------------------------------------------------------------------------------#


U2   "With or Without You"

Same four chords repeat throughout song:

 D D/A Bm7 G/D

 D     x x 0 2 3 2
 D/A   x x 4 2 3 0
 Bm7   x x 0 4 3 2
 G/D   x x 0 0 3 3

 TAB (Guitar parts during chorus):
|---10---10-10---10--------------------|
|-8----8-------8----7------------------|
|---------------------------0-0-0------|
|---------------------0-0-0------------|
|--------------------------------------|
|--------------------------------------|

Solos at end are formation of D chords:
  -2-0-0-2-3----------------
  -3-3-3-3-3----------------
  -2-2-0-2-2----------------
  --------------------------
  --------------------------
  --------------------------
  note that for each chord formation above, each repeats several times, and
  the entire chord sequence of the 5 chord formation above repeats also.

Date: Fri, 10 Jan 1997 17:27:53 -0500 (EST)
From: jp3219@cnsvax.albany.edu
Subject: With or Without You - U2


-With Or Without You
			-U2 From the Album The Joshua Tree

I like to use the following picking pattern when playing this classic.  
Play along with the record to get the simple 4-4 rhythm down.

    D		    Dadd9/A 	    D/B             D/G
------------2---------------0---------------2---------------3-----------------
--------3-------3-------3-------3-------3-------3-------3-------3------------
------2---2---2---2---2---2---2---2---2---2---2---2---2---2---2---2----------
----0-------------------------------------------------------------------------
--------------------0---------------2----------------------------------------
----------------------------------------------------3-------------------------
Repeat the above pattern through the entire song.  Towards the end you 
can strum the following chords.

D   Dadd9    D    Dsus4   

Chord Formations
D       xx0232
Dadd9/A x00230
D/B     x20232
D/G     3x0233
Dadd9   xx0230
Dsus4   xx0233

See the stone set in your eyes
See the thorn twist in your side
I'll Wait for You
Sleight of hand and twist of fate
On a bed of nails she makes me wait
And I wait without you
With or Without you 2x
Through the storm we reach the shore
You give it all but I want more
And I'm waiting for you
With or Without you 2x
I can't live
With or Without you
And you give yourself away 2x
And you give 2x
And you give yourself away
My hands are tied
My body bruised she got me with
Nothing to win and
Nothing left to lose
And you give yourself away 2x
And you give 2x
And you give yourself away
With or Without You 2x
I Can't Live...With or Without You
Ohhhhhhh Ohhhhhhhh
With or Without you 2x
I can't live
With or without you 2x
Hoooooooo Hooooooo



Comments about this tab

No comments/corrections found. Add your own



2005 ZMG, Inc.- All Right Reserved - Privacy Statement