Rockin Tabs Home

 :: Home > Tabs > B > Blink-182 > What's My Age Again?

Blink-182 - What's My Age Again?


This tab has not yet been rated for accuracy.Sorry, but you must be logged in to rate this tab so we can tell which songs you've already voted on, which will help prevent cheating.
Click here to log-in, or you can click here to register.
(Registration is free)


Click here for a plain text version of this song (for better printing)

Add this tab to your list of favorite tabs




#----------------------------------PLEASE NOTE---------------------------------#
#This file is the author's own work and represents their interpretation of the #
#song. You may only use this file for private study, scholarship, or research. #
#------------------------------------------------------------------------------#


Artist: Blink 182
Song: What's my age again?
Album: Enema of the State (1999)


This song is fun and not very hard to play.


Intro and Verse 1:
    F#
E |-------------------------------------------------------|
B |-------11-----------11-----------11-----------11-------|
G |----11----11-----11----11-----11----11-----11----11----|   play this 8x
D |--9----------------------------------------------------|
A |---------------9---------------------------------------|
E |----------------------------9------------11------------|


Chorus:
      F#    C#    D#    B
E |--------------------------|
B |--------------------------|
G |--------66----88----444---|   play this 3x
D |---4----66----88----444---|
A |---4----44----66----222---|
E |---2----------------------| 


End of Chorus:
      F#   C#    D#		C#
E |--------------------------------------|
B |--------66----888888888----66666666---|
G |--------66----888888888----66666666---|
D |---4----44----666666666----44444444---|
A |---4----------------------------------|
E |---2----------------------------------|


Bridge:
    F#
E |----------------------------------------|
B |-----11-----11--11------11-----11--11---|
G |----------------------------------------|
D |----------------------------------------|
A |---9------9-----------9------9----------|
E |----------------------------------------|


Verse 2 (palm muted):
       B       F       C#      D#
E |----------------------------------|
B |----------------------------------|
G |---4444------------6666----8888---|   play this 3x
D |---4444----4444----6666----8888---|
A |---2222----4444----4444----6666---|
E |-----------2222-------------------|




End of Verse 2 (also palm muted):
       B       F       C#          D#
E |------------------------------------------|
B |------------------------------------------|
G |---4444------------66666666----44444444---|
D |---4444----4444----66666666----44444444---|
A |---2222----4444----44444444----22222222---|
E |-----------2222---------------------------|


Solo:
E |----------------------------------------|
B |-----11------11----------11-----11------|
G |--------11------11----------11-----11---|
D |---9-------------------9----------------|
A |----------------------------------------|
E |----------------------------------------|

E |-------------------------------------------|
B |-------------------------------------------|
G |-------------------------------------------|
D |-------8h9-------8h9-------8h9-------8h9---|
A |---999-------999-------999-------999-------|
E |-------------------------------------------|

E |--------------------------------------------------------------------|
B |--------------------------------------------------------------------|
G |---------11---------------11---------------11--------------11-------|
D |-----8--------8-------8--------8-------8--------8------8--------8---|
A |---9---9----9-------9---9----9-------9---9----9------9---9----9-----|
E |--------------------------------------------------------------------|

Song structure:
Intro and verse 1
Chorus
Bridge
Verse 2
Solo
Chorus 3x (after the first time, the intro is played again)

Enjoy!!!



Comments about this tab

No comments/corrections found. Add your own



2005 ZMG, Inc.- All Right Reserved - Privacy Statement