Rockin Tabs Home

 :: Home > Tabs > N > Nirvana > Smells Like Teen Spirit (complete)

Nirvana - Smells Like Teen Spirit (complete)


This tab has not yet been rated for accuracy.Sorry, but you must be logged in to rate this tab so we can tell which songs you've already voted on, which will help prevent cheating.
Click here to log-in, or you can click here to register.
(Registration is free)


Click here for a plain text version of this song (for better printing)

Add this tab to your list of favorite tabs




#----------------------------------PLEASE NOTE---------------------------------#
#This file is the author's own work and represents their interpretation of the #
#song. You may only use this file for private study, scholarship, or research. #
#------------------------------------------------------------------------------#


SMELLS LIKE TEEN SPIRIT by Nirvana(KurtCobain, KristNovoselic ,And DaveGrohl)
Tabbed by:LCacy(1sttab)questions,comments,complaints:musicblossoms@hotmail.co 
Moderate= 120 bpm

INTRO/MAIN RIFF:(clean tone)
    d  d u   dudud d  d u d   d  d u   d u d u d  d u d u
E-------------------------------------------------------- play this about
B------------X0XXX--------0---------------------------X-X 5 times(not sure)
G------------X0XXX-3--3-3-0------------X-X-X-X-6--6-6-X-X
D---3--3-3---X0XXX-3--3-3-0---6--6-6---X-X-X-X-6--6-6-X-X
A---3--3-3---X0XXX-1--1-1-0---6--6-6---X-X-X-X-4--4-4-X-X
E---1--1-1----------------0---4--4-4---X-X-X-X-----------


VERSE:(clean tone,use chorus and reverb) PRE CHORUS:
E-----1-hold and let ring                E-----1-----1-----1-----1
B--1---------------------                B--1-----1-----1-----1---
G------------------------ repeat until   G------------------------
D------------------------                D------------------------
A------------------------                A------------------------
E------------------------                E------------------------


CHORUS:(same as intro except distorted)
    d  d u   dudud d  d u d   d  d u   d u d u d  d u d u
E-------------------------------------------------------- play this about
B------------X0XXX--------0---------------------------X-X 5 times(not sure)
G------------X0XXX-3--3-3-0------------X-X-X-X-6--6-6-X-X
D---3--3-3---X0XXX-3--3-3-0---6--6-6---X-X-X-X-6--6-6-X-X
A---3--3-3---X0XXX-1--1-1-0---6--6-6---X-X-X-X-4--4-4-X-X
E---1--1-1----------------0---4--4-4---X-X-X-X-----------


SOLO:(use a wah-wah pedal)
E----------------------------------------------- 
B----------------------------------------------- 
G----------------------------------------------- 
D------8-10-----8-8-6-5--6-5-----------------
A---10-------6------------------8-6--8-8-6-5-
E-----------------------------------------------
play that twice then
E---------------------------------------------------------------
B---------------------------------------------------------------
G---------------------------------------------------------------
D---------------------------------------------------------------
A--6-5---6-5-6-5-5-slideto-3------6-5---6-5-6-5-5-slideto-3-hold
E---------------------------------------------------------------

 =bend
 X =mute
 d =strike down
 u =stike up

LYRICS:

1ST VERSE 
Load up on guns 
bring your friends
It's fun to lose 
and to pretend
She's overboard 
and self-assured
Oh no I know a dirty word

PRE CHORUS
Hello hello hello how low
Hello hello hello how low
Hello hello hello how low
Hello hello hello how low
With the lights
CHORUS
out  it's less dangerous
Here we are now 
entertain us
I feel stupid
and contagious
Here we are now
entertain us
A mulatto
an albino
a mosquito
my libido    yeah . Hey    Yay

2ND VERSE
I'm worse at what
I do best
and for this gift
I feel blessed
Out little group has always been
and always will until the end

3RD VERSE
And I forget 
just why I taste 
Oh yeah I guess
it makes me smile
I found it hard 
it's hard to find
Oh well
whatever
never mind

A denial
a denial
a denial
a denial
a denial
a denial
a denial
a denial
a deniall

THATS IT!  

R.I.P. Kurt, Your my biggest inspiration



Comments about this tab

No comments/corrections found. Add your own



2005 ZMG, Inc.- All Right Reserved - Privacy Statement