Rockin Tabs Home

 :: Home > Tabs > T > Third Eye Blind > Story Of A Girl

Third Eye Blind - Story Of A Girl


This tab has not yet been rated for accuracy.Sorry, but you must be logged in to rate this tab so we can tell which songs you've already voted on, which will help prevent cheating.
Click here to log-in, or you can click here to register.
(Registration is free)


Click here for a plain text version of this song (for better printing)

Add this tab to your list of favorite tabs




#----------------------------------PLEASE NOTE---------------------------------#
#This file is the author's own work and represents their interpretation of the #
#song. You may only use this file for private study, scholarship, or research. #
#------------------------------------------------------------------------------#


Third eye blind
Story of a girl

Tabbed by brody05

 [chorus] 
   Cadd9     G       Am       D      Bm   Cadd9       Am
|--3-3-33--33-3--|--0-0-00--22-2--|--2-2---3-3--|--0-00-00-0---|
|--3-3-33--33-3--|--1-1-11--33-3--|--4-4---3-3--|--1-11-11-1---|
|--0-0-00--00-0--|--2-2-22--22-2--|--4-4---0-0--|--2-22-22-2---|
|--2-2-22--00-0--|--2-2-22--00-0--|--4-4---2-2--|--2-22-22-2---|
|--3-3-33--22-2--|--0-0-00--------|--2-2---3-3--|--0-00-00-0---|
|----------33-3--|----------------|--2-2--------|--------------|

      G      D   C
|--3-33--3---2---0---|
|--3-33--3---3---1---|
|--0-00--0---2---0---|
|--0-00--0---0---2---| x2
|--2-22--2-------3---|
|--3-33--3-------0---|

 [verse] 
   Bm       Cadd9     G         D
|--2-2-xxx--33-3--|--3-3-xxx--22-2--|
|--4-4-xxx--33-3--|--3-3-xxx--33-3--|
|--4-4-xxx--00-0--|--0-0-xxx--22-2--|
|--4-4-xxx--22-2--|--0-0-xxx--00-0--| x4
|--2-2-xxx--33-3--|--2-2-xxx--------|
|--2-2-xxx--------|--3-3-xxx--------|


 [prechorus]
    Em       D       G       D      Em       D      Am
|----------222-2---333-3---222-2-----------222-2---000-0---|
|----------333-3---333-3---333-3-----------333-3---111-1---|
|--000-0---222-2---000-0---222-2---000-0---222-2---222-2---|
|--222-2---000-0---000-0---000-0---222-2---000-0---222-2---|
|--222-2-----------222-2-----------222-2-----------000-0---|
|--000-0-----------333-3-----------000-0-------------------|

 [chorus]

 [verse] x4

 [prechorus]

 [chorus] 

 [prechorus]

 [solo] (Bm  Cadd9  G   D)

 [chorus] x4



Comments about this tab

No comments/corrections found. Add your own



2005 ZMG, Inc.- All Right Reserved - Privacy Statement