Rockin Tabs Home

 :: Home > Tabs > T > Third Eye Blind > Semi-Charmed Life

Third Eye Blind - Semi-Charmed Life


This tab has not yet been rated for accuracy.Sorry, but you must be logged in to rate this tab so we can tell which songs you've already voted on, which will help prevent cheating.
Click here to log-in, or you can click here to register.
(Registration is free)


Click here for a plain text version of this song (for better printing)

Add this tab to your list of favorite tabs




#----------------------------------PLEASE NOTE---------------------------------#
#This file is the author's own work and represents their interpretation of the #
#song. You may only use this file for private study, scholarship, or research. #
#------------------------------------------------------------------------------#


Artist: Third Eye Blind
Song: Semi-Charmed Life
Tabber: Bananapatata
Standard tuning

/: Slide
h: Hammer On
b: Bend

NOTE: Tab is not in perfect order like drums, you have to figure 
out when to play what.  This is a long song, so it's going to be 
a long tab so I suggest copying and pasting it to Word or Appleworks
and change it as you please.

Rest 1 measure for Drum Intro

Intro (Distorted)     x2

Guitar 1

  G           D        C 
E|---33333----222223---0000---0000---00-----------------------|
B|---33333----333333---1111---1111---11-----------------------|
G|---00000----222220---0000---0000---00-----------------------|
D|---00000----000000---2222---2222---22-----------------------|
A|---22222-------------3333---3333---33-----------------------|
E|---33333----------------------------------------------------|

Guitar 2
E|------------------------------------------------------------|
B|------------------------------------------------------------|
G|-------------------------------7-7-5h4----------------------|
D|------------------------------------------------------------|
A|------------------------------------------------------------|
E|------------------------------------------------------------|

Post-Chorus

E|---33333----222223---0000---0000---00-----------------------|
B|---33333----333333---1111---1111---11-----------------------|
G|---00000----222220---0000---0000---00-----------------------|
D|---00000----000000---2222---2222---22-----------------------|
A|---22222-------------3333---3333---33-----------------------|
E|---33333----------------------------------------------------|

E|---33333----222223---0000---0000---0------------------------|
B|---33333----333333---1111---1111---1------------------------|
G|---00000----222220---0000---0000---0------------------------|
D|---00000-------------2222---2222---2------------------------|
A|---22222-------------3333---3333---3------------------------|
E|---33333----------------------------------------------------|


Verse  (Clean/Acoustic)

   _______________________Play 4 times________________________
  /                                                           |
E|---33333----222223---0000---0000---00-----------------------|
B|---33333----333333---1111---1111---11-----------------------|
G|---00000----222220---0000---0000---00-----------------------|
D|---00000----000000---2222---2222---22-----------------------|
A|---22222-------------3333---3333---33-----------------------|
E|---33333----------------------------------------------------|
     \____________Palm Mute___________/

E|---33333----222223---0000---0000---00-----------------------|
B|---33333----333333---1111---1111---11-----------------------|
G|---00000----222220---0000---0000---00-----------------------|
D|---00000----000000---2222---2222---22-----------------------|
A|---22222-------------3333---3333---33-----------------------|
E|---33333----------------------------------------------------|
   \Distort/  \_______Palm Mute_______/

E|---33333----222223---0000---0000---00-----------------------|
B|---33333----333333---1111---1111---11-----------------------|
G|---00000----222220---0000---0000---00-----------------------|
D|---00000----000000---2222---2222---22-----------------------|
A|---22222-------------3333---3333---33-----------------------|
E|---33333----------------------------------------------------|
     \____________Palm Mute___________/

Chorus  (Distort)

   _____________________Play 3 times__________________________
  /                                                           |
E|---33333----222223---0000---0000---00-----------------------|
B|---33333----333333---1111---1111---11-----------------------|
G|---00000----222220---0000---0000---00-----------------------|
D|---00000----000000---2222---2222---22-----------------------|
A|---22222-------------3333---3333---33-----------------------|
E|---33333----------------------------------------------------|

E|---33333----222223---0--------------------------------------|
B|---33333----333333---1--------------------------------------|
G|---00000----222220---0--------------------------------------|
D|---00000----000000---2--------------------------------------|
A|---22222-------------3--------------------------------------|
E|---33333----------------------------------------------------|


Post-Chorus

E|---33333----222223---0000---0000---00-----------------------|
B|---33333----333333---1111---1111---11-----------------------|
G|---00000----222220---0000---0000---00-----------------------|
D|---00000----000000---2222---2222---22-----------------------|
A|---22222-------------3333---3333---33-----------------------|
E|---33333----------------------------------------------------|
E|------------------------------------------------------------|

E|---33333----222223---0000---0000---0------------------------|
B|---33333----333333---1111---1111---1------------------------|
G|---00000----222220---0000---0000---0------------------------|
D|---00000----000000---2222---2222---2------------------------|
A|---22222-------------3333---3333---3------------------------|
E|---33333----------------------------------------------------|


Verse 2 (Clean/Acoustic)

Guitar 1
E|------------------------------------------------------------|
B|------12----12-10----13--------13----13-12-10---------------|
G|-12------12-------12--------12----12----------12------------|
D|------------------------------------------------------------|
A|------------------------------------------------------------|
E|------------------------------------------------------------|
  "-,it was rose.  I was taking-"

E|------------------------------------------------------------|
B|------12----12-10--------10-8---8-8---8-8h10----------------|
G|---------12-------12-9--------9-----------------------------|
D|------------------------------------------------------------|
A|------------------------------------------------------------|
E|------------------------------------------------------------|

E|------------------------------------------------------------|
B|------12----12-10----13------13---13-13-12-10---------------|
G|-12------12-------12------12----12------------12------------|
D|------------------------------------------------------------|
A|------------------------------------------------------------|
E|------------------------------------------------------------|

E|------------------------------------------------------------|
B|------12----12-10--------10-8------1h3p1-0-1h0--------------|
G|-12------12-------12-9--------9/---------------0------------|
D|------------------------------------------------------------|
A|------------------------------------------------------------|
E|------------------------------------------------------------|
                                   \__Wah ON__/

Guitar 2
   _______________________Play 2 times________________________
  /                                                           |
E|---33333----222223---0000---0000---00-----------------------|
B|---33333----333333---1111---1111---11-----------------------|
G|---00000----222220---0000---0000---00-----------------------|
D|---00000-------------2222---2222---22-----------------------|
A|---22222-------------3333---3333---33-----------------------|
E|---33333----------------------------------------------------|

E|---33333----222223---0000---0000---00-----------------------|
B|---00000----333333---1111---1111---11-----------------------|
G|---00000----222220---0000---0000---00-----------------------|
D|---00000-------------2222---2222---22-----------------------|
A|---22222-------------3333---3333---33-----------------------|
E|---33333----------------------------------------------------|
   \Distort/

E|---33333----222223---0000---0000---00-----------------------|
B|---00000----333333---1111---1111---11-----------------------|
G|---00000----222220---0000---0000---00-----------------------|
D|---00000----000000---2222---2222---22-----------------------|
A|---22222-------------3333---3333---33-----------------------|
E|---33333----------------------------------------------------|

Pre-Chorus

   ______________________Play 3 times_________________________
  /                                                           |
E|---2---2----00-0--0-----------------------------------------|
B|---3---3----11-1--1-----------------------------------------|
G|---2---2----00-0--0-----------------------------------------|
D|---0---0----22-2--2-----------------------------------------|
A|------------33-3--3-----------------------------------------|
E|------------------------------------------------------------|

E|---2-2---2-2---2--------------------------------------------|
B|---3-3---3-3---3--------------------------------------------|
G|---2-2---2-2---2--------------------------------------------|
D|---0-0---0-0---0--------------------------------------------|
A|------------------------------------------------------------|
E|------------------------------------------------------------|


Chorus  (Distort)

   _____________________Play 3 times__________________________
  /                                                           |
E|---33333----222223---0000---0000---00-----------------------|
B|---33333----333333---1111---1111---11-----------------------|
G|---00000----222220---0000---0000---00-----------------------|
D|---00000----000000---2222---2222---22-----------------------|
A|---22222-------------3333---3333---33-----------------------|
E|---33333----------------------------------------------------|

E|---33333----222223---0--------------------------------------|
B|---33333----333333---1--------------------------------------|
G|---00000----222220---0--------------------------------------|
D|---00000----000000---2--------------------------------------|
A|---22222-------------3--------------------------------------|
E|---33333----------------------------------------------------|


Verse 3

Rest 6 Measures

   _____________________Play 2 times__________________________
  /                                                           |
E|---33333----222223---0000---0000---00-----------------------|
B|---33333----333333---1111---1111---11-----------------------|
G|---00000----222220---0000---0000---00-----------------------|
D|---00000----000000---2222---2222---22-----------------------|
A|---22222-------------3333---3333---33-----------------------|
E|---33333----------------------------------------------------|
    "-can make me cry-"
 

Bridge
   ______________________Play 3 times_________________________
  /                                                           |
E|---2---2----00-0--0-----------------------------------------|
B|---3---3----11-1--1-----------------------------------------|
G|---2---2----00-0--0-----------------------------------------|
D|---0---0----22-2--2-----------------------------------------|
A|------------33-3--3-----------------------------------------|
E|------------------------------------------------------------|
  "-plane came in she said she-"

E|---3---3---3---3--------------------------------------------|
B|---3---3---3---3--------------------------------------------|
G|---0---0---0---0--------------------------------------------|
D|---0---0---0---0--------------------------------------------|
A|---2---2---2---2--------------------------------------------|
E|---3---3---3---3--------------------------------------------|

   ______________________Play 3 times_________________________
  /                                                           |
E|---2---2----00-0--0-----------------------------------------|
B|---3---3----11-1--1-----------------------------------------|
G|---2---2----00-0--0-----------------------------------------|
D|---0---0----22-2--2-----------------------------------------|
A|------------33-3--3-----------------------------------------|
E|------------------------------------------------------------|

E|---3--------------------------------------------------------|
B|---3--------------------------------------------------------|
G|---0--------------------------------------------------------|
D|---0--------------------------------------------------------|
A|---2--------------------------------------------------------|
E|---3--------------------------------------------------------|

Rest 3

E|---33---33--33-3-3333---------------------------------------|
B|---33---33--33-3-3333---------------------------------------|
G|---00---00--00-0-0000---------------------------------------|
D|---00---00--00-0-0000---------------------------------------|
A|---22---22--22-2-2222---------------------------------------|
E|---33---33--22-2-2222---------------------------------------|
  "-all that I want to do just a little now!"


Verse 4
   _____________________Play 4 times__________________________
  /                                                           |
E|---33333----222223---0000---0000---00-----------------------|
B|---33333----333333---1111---1111---11-----------------------|
G|---00000----222220---0000---0000---00-----------------------|
D|---00000----000000---2222---2222---22-----------------------|
A|---22222-------------3333---3333---33-----------------------|
E|---33333----------------------------------------------------|


Rest 8 measures

Pre-Outro

E|------------------------------------------------------------|
B|------------------------------------------------------------|
G|-------0-----0-----2-------------0-----0-----2--------------|
D|-----2-----0-----2-------------2-----0-----2----------------|
A|---3-----2-----0-------------3-----2-----0------------------|
E|------------------------------------------------------------|
(good)"-bye.  Goodbye."

E|------------------------------------------------------------|
B|------------------------------------------------------------|
G|-------0-----0-----2----------------------------------------|
D|-----2-----0-----2------------------------------------------|
A|---3-----2-----0--------------------------------------------|
E|------------------------------------------------------------|

E|---33333----222223---0000---0000---00-----------------------|
B|---33333----333333---1111---1111---11-----------------------|
G|---00000----222220---0000---0000---00-----------------------|
D|---00000----000000---2222---2222---22-----------------------|
A|---22222-------------3333---3333---33-----------------------|
E|---33333----------------------------------------------------|
(good)"-bye"
E|---33333----222223---0-0-0-0-0-0----------------------------|
B|---33333----333333---1-1-1-1-1-1----------------------------|
G|---00000----222220---0-0-0-0-0-0----------------------------|
D|---00000----000000---2-2-2-2-2-2----------------------------|
A|---22222-------------3-3-3-3-3-3----------------------------|
E|---33333----------------------------------------------------|


Outro

E|---33333----222223---0000---0000---00-----------------------|
B|---33333----333333---1111---1111---11-----------------------|
G|---00000----222220---0000---0000---00-----------------------|
D|---00000----000000---2222---2222---22-----------------------|__
A|---22222-------------3333---3333---33-----------------------|  \
E|---33333----------------------------------------------------|   \
                                                                   } x3
E|---33333----222223---0-0-0-0-0-0----------------------------|   /
B|---33333----333333---1-1-1-1-1-1----------------------------|__/
G|---00000----222220---0-0-0-0-0-0----------------------------|
D|---00000----000000---2-2-2-2-2-2----------------------------|
A|---22222-------------3-3-3-3-3-3----------------------------|    
E|---33333----------------------------------------------------|

E|---33333----222223---0000---0000---00-----------------------|
B|---33333----333333---1111---1111---11-----------------------|
G|---00000----222220---0000---0000---00-----------------------|
D|---00000----000000---2222---2222---22-----------------------|
A|---22222-------------3333---3333---33-----------------------|
E|---33333----------------------------------------------------|

E|------------------------------------------------------------|
B|------------------------------------------------------------|
G|-------0-----0-2--------------------------------------------|
D|-----2-----0---2--------------------------------------------|
A|---3-----2-----0--------------------------------------------|
E|------------------------------------------------------------|



Comments about this tab

No comments/corrections found. Add your own



2005 ZMG, Inc.- All Right Reserved - Privacy Statement