Rockin Tabs Home

 :: Home > Tabs > T > Third Eye Blind > Jumper

Third Eye Blind - Jumper


This tab has not yet been rated for accuracy.Sorry, but you must be logged in to rate this tab so we can tell which songs you've already voted on, which will help prevent cheating.
Click here to log-in, or you can click here to register.
(Registration is free)


Click here for a plain text version of this song (for better printing)

Add this tab to your list of favorite tabs




#----------------------------------PLEASE NOTE---------------------------------#
#This file is the author's own work and represents their interpretation of the #
#song. You may only use this file for private study, scholarship, or research. #
#------------------------------------------------------------------------------#


Jumper
Third Eye Blind

i didnt bother with how many times you play each chord, but
whats here is correct.

|-0-------------------0-------------------3------------------|
|-1-------------------1-------------------3------------------|
|-2-------------------0-------------------0------------------|
|-3-------------------2-------------------0------------------|
|-3-------------------3-------------------2------------------|
|-----------------------------------------3------------------|
    i wish you would step back from that ledge my friend

|---0---------------------------0------------------|
|---1---------------------------1------------------|
|---2---------------------------0------------------|
|---2---------------------------2------------------|
|---0---------------------------3------------------|
|--------------------------------------------------|
the angry boy a bit too insane icing over a secret pain

|-3---------------------|
|-3---------------------|
|-0---------------------|
|-0---------------------|
|-2---------------------|
|-3---------------------|
you know you dont belong
                                                           
|--------0--------------------------0-0-0------/--0---|    
|--------1--------------------------3-3--3-----/--1---|    
|--------2--------------------------0-0---0----/--0---| 
|--------2--------------------------4-4----4---/--2---|
|--------0--------------------------5-5-----5--/--3---|
|-----------------------------------------------------|
   cause everyone i know has got a reason...   to say...


 solo
|-----------------------------13-13-12h13p12-------|
|-13-13-12h13-12h13p12h13-15----------------12-15--|
|---------------------------12---------------------|
|--------------------------------------------------|
|--------------------------------------------------|
|--------------------------------------------------|



Comments about this tab

No comments/corrections found. Add your own



2005 ZMG, Inc.- All Right Reserved - Privacy Statement