Rockin Tabs Home

 :: Home > Tabs > T > Third Eye Blind > Slow Motion

Third Eye Blind - Slow Motion


This tab has not yet been rated for accuracy.Sorry, but you must be logged in to rate this tab so we can tell which songs you've already voted on, which will help prevent cheating.
Click here to log-in, or you can click here to register.
(Registration is free)


Click here for a plain text version of this song (for better printing)

Add this tab to your list of favorite tabs




#----------------------------------PLEASE NOTE---------------------------------#
#This file is the author's own work and represents their interpretation of the #
#song. You may only use this file for private study, scholarship, or research. #
#------------------------------------------------------------------------------#


Author/Artist: Third Eye Blind
Title: Slow Motion
Album: Blue
Transcribed by: Jeff Wells
Email: BLUEYEBLIND@hotmail.com

Standard Tuning
Capo on 1st fret
Notes relative to Capo

Played with slight distortion
the ^ indicates a harmonic

Intro/Verse:

-----3p2---0--------------------------------0-----------------------
---3-----3---------x-----x-x-x--------3---3-------------------------
----------------2--x-----x-x-x----------0-----0---------------------
-0------------0-2--x-----x-x-x------2-------------------------------
-------------------------x-x-x--0-2---------------------------------
----------------------3---------------------------------------------


-----3p2---0--------------------------------------------------------
---3-----3---------------x-x-x--------3---12^-------------x---------
----------------2--------x-x-x------------12^--7^------x--x---------
-0------------0-2--------x-x-x------2-----12^--7^------x--x---------
-------------------------x-x-x--0-2--------------------x--x---------
----------------------3---------------------------------------------

Verse 1:

-|-2-|-0-|-3-|-0-|----|-0-|-----------------------------------------
-|-3-|-2-|-3-|-3-|----|-2-|-----------------------------------------
-|-2-|-2-|-0-|-0-|----|-2-|-----------------------------------------
-|-0-|-2-|-0-|-2-|-x4-|-2-|-----------------------------------------
-|---|-0-|-2-|-2-|----|-0-|-----------------------------------------
-|---|---|-3-|---|----|---|-----------------------------------------

Chorus:

-||-2-|-0-|-0-|---|-2-|-0-|-0-|-3-|---------------------------------
-||-3-|-2-|-3-|---|-3-|-2-|-3-|-3-|---------------------------------
-||-2-|-2-|-0-|---|-2-|-2-|-0-|-0-|---------------------------------
-||-0-|-2-|-2-|---|-0-|-2-|-2-|-0-|---------------------------------
-||---|-0-|-2-|---|---|-0-|-2-|-2-|---------------------------------
-||---|---|---|---|---|---|---|-3-|---------------------------------


-|-2-|-0-|-2-|--------2-----2-----2------------||-------------------
-|-3-|-2-|-3-|------------3-------3--------12^-||-------------------
-|-2-|-2-|-4-|-4--------4-----4---4--------12^-||-------------------
-|-0-|-2-|-4-|------4----------------------12^-||-------------------
-|---|-0-|-2-|---2-----------------------------||-------------------
-|---|---|---|---------------------------------||-------------------

Verse 2:                         ..... a most beautiful ruby red

-|-2-|-0-|-3-|-0-|----------|-2-|-0-|-3-|---------------------------
-|-3-|-2-|-3-|-3-|----------|-3-|-2-|-3-|---------------------------
-|-2-|-2-|-0-|-0-|----x3----|-2-|-2-|-0-|---------------------------
-|-0-|-2-|-0-|-2-|----------|-0-|-2-|-0-|---------------------------
-|---|-0-|-2-|-2-|----------|---|-0-|-2-|---------------------------
-|---|---|-3-|---|----------|---|---|-3-|---------------------------

And at home ....  my sister's eating paint chips again ....

-0-----3----3-3-----0----0-0-----2----2-2-----3----3-3--------------
-2-----3----3-3-----2----2-2-----3----3-3-----3----3-3--------------
-2-----0----0-0-----2----2-2-----4----4-4-----0----0-0--------------
-2-----0----0-0-----2----2-2-----4----4-4-----0----0-0--------------
-0-----2----2-2-----0----0-0-----2----2-2-----2----2-2--------------
-------3----3-3-------------------------------3----3-3--------------

I shut the door to her moaning ......

-3----3-3------0----0-0------2----2-2---2-2-2-2-2-2-2-2-------------
-3----3-3------2----2-2------3----3-3---3-3-3-3-3-3-3-3-------------
-0----0-0------2----2-2------4----4-4---4-4-4-4-4-4-4-4-------------
-0----0-0------2----2-2------4----4-4---4-4-4-4-4-4-4-4-------------
-2----2-2------0----0-0------2----2-2---2-2-2-2-2-2-2-2-------------
-3----3-3-----------------------------------------------------------

See my neighbor .......

-3----3-3-----0----0-0-----0---0-0---0-0-0-0------------------------
-3----3-3-----2----2-2-----3---3-3---3-3-3-3------------------------
-0----0-0-----2----2-2-----0---0-0---0-0-0-0------------------------
-0----0-0-----2----2-2-----2---2-2---2-2-2-2------------------------
-2----2-2-----0----0-0-----2---2-2---2-2-2-2------------------------
-3----3-3-----------------------------------------------------------

There's an arc to his fist .....

-3--3--3--3--3--3--3-----0------------------------------------------
-3--3--3--3--3--3--3-----2------------------------------------------
-0--0--0--0--0--0--0-----2------------------------------------------
-0--0--0--0--0--0--0-----2------------------------------------------
-2--2--2--2--2--2--2-----0------------------------------------------
-3--3--3--3--3--3--3------------------------------------------------

What a beautiful thing .....

-2-----2--------2-----2--------2-------2------0---------------------
-3-------3------2-------2------3-----3--------2---------------------
-4--------------2--------------4--------------2---------------------
-4--------------2--------------4--------------2---------------------
-2--------------0--------------2--------------0---------------------
--------------------------------------------------------------------

Verse 3:

-|-2-|-0-|-3-|-0-|--------------------------------------------------
-|-3-|-2-|-3-|-3-|--------------------------------------------------
-|-2-|-2-|-0-|-0-|--------------------------------------------------
-|-0-|-2-|-0-|-2-|-x3-----------------------------------------------
-|---|-0-|-2-|-2-|--------------------------------------------------
-|---|---|-3-|---|--------------------------------------------------

Chorus/Outro:

-|-2-|-0-|-0-|---|-2-|-0-|-0-|-3-|---|-2-|-0-|-2-|-------2-----2----
-|-3-|-2-|-3-|---|-3-|-2-|-3-|-3-|---|-3-|-2-|-3-|-----3-----3---3--
-|-2-|-2-|-0-|---|-2-|-2-|-0-|-0-|---|-2-|-2-|-4-|-4-4-----4--------
-|-0-|-2-|-2-|---|-0-|-2-|-2-|-0-|---|-0-|-2-|-4-|------------------
-|---|-0-|-2-|---|---|-0-|-2-|-2-|---|---|-0-|-2-|------------------
-|---|---|---|---|---|---|---|-3-|---|---|---|---|------------------

End on:

-|-0-|-2-|----------------------------------------------------------
-|-2-|-3-|----------------------------------------------------------
-|-2-|-2-|----------------------------------------------------------
-|-2-|-0-|----------------------------------------------------------
-|-0-|---|----------------------------------------------------------
-|---|---|----------------------------------------------------------


Author/Artist: Third Eye Blind
Title: Slow Motion
Album: Blue
Transcribed by: LocalYokel
Email: schismaticresolutions@hotmail.com

Standard Tuning
Capo on 1st fret
Notes relative to Capo

Played with slight distortion
the ^ indicates a harmonic

Intro/Verse:

-----3p2---0--------------------------------0-----------------------
---3-----3---------x-----x-x-x--------3---3-------------------------
----------------2--x-----x-x-x----------0-----0---------------------
-0------------0-2--x-----x-x-x------2-------------------------------
-------------------------x-x-x--0-2---------------------------------
----------------------3---------------------------------------------


-----3p2---0--------------------------------------------------------
---3-----3---------------x-x-x--------3---12^-------------x---------
----------------2--------x-x-x------------12^--7^------x--x---------
-0------------0-2--------x-x-x------2-----12^--7^------x--x---------
-------------------------x-x-x--0-2--------------------x--x---------
----------------------3---------------------------------------------

Verse 1:

-|-2-|-0-|-3-|-0-|----|-0-|-----------------------------------------
-|-3-|-2-|-3-|-3-|----|-2-|-----------------------------------------
-|-2-|-2-|-0-|-0-|----|-2-|-----------------------------------------
-|-0-|-2-|-0-|-2-|-x4-|-2-|-----------------------------------------
-|---|-0-|-2-|-2-|----|-0-|-----------------------------------------
-|---|---|-3-|---|----|---|-----------------------------------------

Chorus:

-||-2-|-0-|-0-|---|-2-|-0-|-0-|-3-|---------------------------------
-||-3-|-2-|-3-|---|-3-|-2-|-3-|-3-|---------------------------------
-||-2-|-2-|-0-|---|-2-|-2-|-0-|-0-|---------------------------------
-||-0-|-2-|-2-|---|-0-|-2-|-2-|-0-|---------------------------------
-||---|-0-|-2-|---|---|-0-|-2-|-2-|---------------------------------
-||---|---|---|---|---|---|---|-3-|---------------------------------


-|-2-|-0-|-2-|--------2-----2-----2------------||-------------------
-|-3-|-2-|-3-|------------3-------3--------12^-||-------------------
-|-2-|-2-|-4-|-4--------4-----4---4--------12^-||-------------------
-|-0-|-2-|-4-|------4----------------------12^-||-------------------
-|---|-0-|-2-|---2-----------------------------||-------------------
-|---|---|---|---------------------------------||-------------------

Verse 2:                         ..... a most beautiful ruby red

-|-2-|-0-|-3-|-0-|----------|-2-|-0-|-3-|---------------------------
-|-3-|-2-|-3-|-3-|----------|-3-|-2-|-3-|---------------------------
-|-2-|-2-|-0-|-0-|----x3----|-2-|-2-|-0-|---------------------------
-|-0-|-2-|-0-|-2-|----------|-0-|-2-|-0-|---------------------------
-|---|-0-|-2-|-2-|----------|---|-0-|-2-|---------------------------
-|---|---|-3-|---|----------|---|---|-3-|---------------------------

And at home ....  my sister's eating paint chips again ....

-0-----3----3-3-----0----0-0-----2----2-2-----3----3-3--------------
-2-----3----3-3-----2----2-2-----3----3-3-----3----3-3--------------
-2-----0----0-0-----2----2-2-----4----4-4-----0----0-0--------------
-2-----0----0-0-----2----2-2-----4----4-4-----0----0-0--------------
-0-----2----2-2-----0----0-0-----2----2-2-----2----2-2--------------
-------3----3-3-------------------------------3----3-3--------------

I shut the door to her moaning ......

-3----3-3------0----0-0------2----2-2---2-2-2-2-2-2-2-2-------------
-3----3-3------2----2-2------3----3-3---3-3-3-3-3-3-3-3-------------
-0----0-0------2----2-2------4----4-4---4-4-4-4-4-4-4-4-------------
-0----0-0------2----2-2------4----4-4---4-4-4-4-4-4-4-4-------------
-2----2-2------0----0-0------2----2-2---2-2-2-2-2-2-2-2-------------
-3----3-3-----------------------------------------------------------

See my neighbor .......

-3----3-3-----0----0-0-----0---0-0---0-0-0-0------------------------
-3----3-3-----2----2-2-----3---3-3---3-3-3-3------------------------
-0----0-0-----2----2-2-----0---0-0---0-0-0-0------------------------
-0----0-0-----2----2-2-----2---2-2---2-2-2-2------------------------
-2----2-2-----0----0-0-----2---2-2---2-2-2-2------------------------
-3----3-3-----------------------------------------------------------

There's an arc to his fist .....

-3--3--3--3--3--3--3-----0------------------------------------------
-3--3--3--3--3--3--3-----2------------------------------------------
-0--0--0--0--0--0--0-----2------------------------------------------
-0--0--0--0--0--0--0-----2------------------------------------------
-2--2--2--2--2--2--2-----0------------------------------------------
-3--3--3--3--3--3--3------------------------------------------------

What a beautiful thing .....

-2-----2--------2-----2--------2-------2------0---------------------
-3-------3------2-------2------3-----3--------2---------------------
-4--------------2--------------4--------------2---------------------
-4--------------2--------------4--------------2---------------------
-2--------------0--------------2--------------0---------------------
--------------------------------------------------------------------

Verse 3:

-|-2-|-0-|-3-|-0-|--------------------------------------------------
-|-3-|-2-|-3-|-3-|--------------------------------------------------
-|-2-|-2-|-0-|-0-|--------------------------------------------------
-|-0-|-2-|-0-|-2-|-x3-----------------------------------------------
-|---|-0-|-2-|-2-|--------------------------------------------------
-|---|---|-3-|---|--------------------------------------------------

Chorus/Outro:

-|-2-|-0-|-0-|---|-2-|-0-|-0-|-3-|---|-2-|-0-|-2-|-------2-----2----
-|-3-|-2-|-3-|---|-3-|-2-|-3-|-3-|---|-3-|-2-|-3-|-----3-----3---3--
-|-2-|-2-|-0-|---|-2-|-2-|-0-|-0-|---|-2-|-2-|-4-|-4-4-----4--------
-|-0-|-2-|-2-|---|-0-|-2-|-2-|-0-|---|-0-|-2-|-4-|------------------
-|---|-0-|-2-|---|---|-0-|-2-|-2-|---|---|-0-|-2-|------------------
-|---|---|---|---|---|---|---|-3-|---|---|---|---|------------------

End on:

-|-0-|-2-|----------------------------------------------------------
-|-2-|-3-|----------------------------------------------------------
-|-2-|-2-|----------------------------------------------------------
-|-2-|-0-|----------------------------------------------------------
-|-0-|---|----------------------------------------------------------
-|---|---|----------------------------------------------------------



Comments about this tab

No comments/corrections found. Add your own



2005 ZMG, Inc.- All Right Reserved - Privacy Statement