Rockin Tabs Home

 :: Home > Tabs > T > Three Doors Down > Away From The Sun

Three Doors Down - Away From The Sun


This tab has been rated a 5.00 out of 5 for accuracy.
(1 vote)
Sorry, but you must be logged in to rate this tab so we can tell which songs you've already voted on, which will help prevent cheating.
Click here to log-in, or you can click here to register.
(Registration is free)


Click here for a plain text version of this song (for better printing)

Add this tab to your list of favorite tabs




#----------------------------------PLEASE NOTE---------------------------------#
#This file is the author's own work and represents their interpretation of the #
#song. You may only use this file for private study, scholarship, or research. #
#------------------------------------------------------------------------------#


Artist:3 Doors Down
Song:Away From The Sun
Album:Away From The Sun
Tuning:Standard (E,A,D,G,B,E)
Tabbed By: Jan Lazur  
Email: Janny1985@hotmail.com

-Intro-
Gtr. 1(clean, for the best sound use some Chorus Effect) 
e|-----------------|-----------------|-----------------|--------------0--|
B|---1-----1-----1-|---1-----0h1---1-|---1-----1-----1-|---1-----0--3----|
G|-----2-----2-----|-----0-------0---|-----0-----0-----|-----0-----------|
D|-3-----3-----3---|-2-----2---------|-----------------|-----------------|
A|-----------------|-----------------|-3-----3-----3---|-2-----2---------|
E|-----------------|-----------------|-----------------|-----------------|

Gtr. 2 - plays nothing

Gtr. 1
e|-----------------|-----------------|-----------------|-----------------|
B|---1-----1-----1-|---1-----0h1---1-|---3---1---0-----|---3---1---0---1-|
G|-----2-----2-----|-----0-------0---|-----0---0---(0)-|-----0---0---0---|
D|-3-----3-----3---|-2-----2---------|-----------------|-----------------|
A|-----------------|-----------------|-----------------|-----------------|
E|-----------------|-----------------|-3---------------|-3---------------|

Gtr. 2
e|-----------------|-----------------|-----------------|-----------------|
B|-1---------------|-1---------------|-----------------|-----------------|
G|-2---------------|-0---------------|-----------------|-----------------|
D|-3---------------|-2---------------|-----------------|-----------------|
A|-3---------------|-3---------------|-----------------|-----------------|
E|-----------------|-----------------|-----------------|-----------------|

-Verse-
Gtr.1(clean, for the best sound use some Chorus Efect) 
e|-----------------|-----------------|-----------------|--------------0--|
B|---1-----1-----1-|---1-----0h1---1-|---1-----1-----1-|---1-----0--3----|
G|-----2-----2-----|-----0-------0---|-----0-----0-----|-----0-----------|
D|-3-----3-----3---|-2-----2---------|-----------------|-----------------|
A|-----------------|-----------------|-3-----3-----3---|-2-----2---------|
E|-----------------|-----------------|-----------------|-----------------|

Gtr.2
e|-----------------|-----------------|-----------------|--------------0--|
B|-1---------------|-1---------------|---1-------------|---1----0-1-3----|
G|-2---------------|-0---------------|-----------------|-----------------|
D|-3---------------|-2---------------|-----------------|-----------------|
A|-3---------------|-3---------------|-3---------------|-2---------------|
E|-----------------|-----------------|-----------------|-----------------|

Gtr.1
e|-----------------|-----------------|-----------------|-----------------|
B|---1-----1-----1-|---1-----0h1---1-|---3---1---0-----|---3---1---0---1-|
G|-----2-----2-----|-----0-------0---|-----0---0---(0)-|-----0---0---0---|
D|-3-----3-----3---|-2-----2---------|-----------------|-----------------|
A|-----------------|-----------------|-----------------|-----------------|
E|-----------------|-----------------|-3---------------|-3---------------|

Gtr.2
e|-----------------|-----------------|-----------------|-----------------|
B|---1-------------|---1-------------|---3--1--0-------|---3--1--0--1----|
G|-----------------|-----------------|-----------------|-----------------|
D|-3---------------|-2---------------|-----------------|-----------------|
A|-----------------|-----------------|-----------------|-----------------|
E|-----------------|-----------------|-----------------|-----------------|

-Chorus-
Both gtrs. (Distortion)
   * * (*=palm muting)
e|-----|----------------|---------------|----------------|---------------|
B|-----|----------------|---------------|----------------|---------------|
G|-----|-5------0-----0-|--------0------|--------0-----0-|---------------|
D|-3-3-|-5----2-----0---|-3----2---0----|-3----2-----0---|-3------0------|
A|-3-3-|-3--3-----2-----|-3--3-------3--|-3--3-----2-----|-3--2-3--------|
E|-1-1-|----------------|-1-------------|-1--------------|-1--------3----|

-Interlude-
Gtr.1 (clean)
e|-5/-----5----7~--------8~--------8----7-----8/10-10-10\8-8-8/10--------|
B|-----------------------------------------------------------------------|
G|-----------------------------------------------------------------------|
D|-----------------------------------------------------------------------|
A|-----------------------------------------------------------------------|
E|-----------------------------------------------------------------------|

Gtr.2 (distortion)
e|-----------------------------------------------------------------------|
B|-----------------------------------------------------------------------|
G|-2------2----4---------5---------5\4-----------------------------------|
D|-2------2----4---------5---------5\4--5--------------------------------|
A|-0------0----2---------3---------3\2--5--------------------------------|
E|--------------------------------------3--------------------------------|

-Outro-
Gtr.1 (clean)
e|-5/-----5----7~--------8~--------8--7-----------------------------------|
B|------------------------------------------------------------------------|
G|------------------------------------------------------------------------|
D|------------------------------------------------------------------------|
A|------------------------------------------------------------------------|
E|------------------------------------------------------------------------|

Gtr.2 (distortion)
e|------------------------------------------------------------------------|
B|------------------------------------------------------------------------|
G|-2------2----4---------5---------5\4------------------------------------|
D|-2------2----4---------5---------5\4--5---------------------------------|
A|-0------0----2---------3---------3\2--5---------------------------------|
E|--------------------------------------3---------------------------------|

(*=palm muting)

Order:
Intro
Verse 2x
Chorus
Verse 3x
Chorus 2x
Interlude
Verse 2x
Chorus 2x
Outro

Tab Key:
(*=palm muting)



Comments about this tab

No comments/corrections found. Add your own



2005 ZMG, Inc.- All Right Reserved - Privacy Statement