Rockin Tabs Home

 :: Home > Tabs > A > Alter Bridge > Find the Real

Alter Bridge - Find the Real


This tab has not yet been rated for accuracy.Sorry, but you must be logged in to rate this tab so we can tell which songs you've already voted on, which will help prevent cheating.
Click here to log-in, or you can click here to register.
(Registration is free)


Click here for a plain text version of this song (for better printing)

Add this tab to your list of favorite tabs




#----------------------------------PLEASE NOTE---------------------------------#
#This file is the author's own work and represents their interpretation of the #
#song. You may only use this file for private study, scholarship, or research. #
#------------------------------------------------------------------------------#


Song:Find the Real
CD:One Day Remains
Tuning:DbAbDbGbBbEb
Written by:Mark Tremonti
Tabbed by:Nathan N.
Intro                                            PH--
----------------------------------------------------------------
----------------------------------------------------------------
----------------------------------------------------------------
----------------------------------------------------4b6r4~------
----------5-4-3----------------3------------3-0-3-5-------------
12\--0--0-------6/7-6~-6-0-3-5---3~-3-0-3-5---------------------
PM                                    =====
---------------------------------------------------------
---------------------------------------------------------
---------------------------------------------------------
---------------------------------------------------------
---5-4-3----------------3------0-3-5-2-0-2-5-------------
0--------6/7-6~-6-0-3-5---3~-3-0-3-5-2-0-2-5-1b3r1~------
PM                             =====       =PH-
Verse
---------------------------------------------------------
---------------------------------------------------------
---------------------------------------------------------
-----------------------------------------------4b6r4~----
-----5-4-3----------------3------------3-0-3-5-----------
0--0-------6/7-6~-6-0-3-5---3~-3-0-3-5-------------------
PM   =====          =====        =====   =====
-----------------------------------------------------------
-----------------------------------------------------------
-----------------------------------------------------------
-----------------------------------------------------------
-----5-4-3----------------3------------0-3-5-5b7r5~--------
0--0-------6/7-6~-6-0-3-5---3~-3-0-3-5---------------------
PM   =====          =====        ===== =====
---------------------------------------------------------
---------------------------------------------------------
---------------------------------------------------------
----------------------------------------------4b6r4~-----
----5-4-3----------------3------------3-0-3-5------------
0-0-------6/7-6~-6-0-3-5---3~-3-0-3-5--------------------
PM                 =====        =====       PH-
----------------------------------------------------------
----------------------------------------------------------
----------------------------------------------------------
----------------------------------------------4v----------
-----5-4-3----------------3-3-3-------3-0-3-5-------------
0----------6/7-6~-6-0-3-5---3-3-0-3-5---------------------
PM                  =====                   PH-
Chorus
--------------------------------------------0--0-------------------
--------------------------------------------7--7-------------------
--------------555555-5-55-5--------77777777-7--7-------------------
3-33----------333333-5-55-5--------55555555-0--0-------------------
1-11-0-1-2-3--333333-3-33-3-0-3-4--55555555-0--0------0------------
-----0-1-2-3--333333--------0-3-4--55555555-0--0--0-0--------------
Chorus lead1
----------------------------------------------------------
13----13--------------------------------------------------
12b14-12b14r12p10----10~-------------------12-10~---------
------------------12--------------10-12-10----------------
------------------------------/12-------------------------
--------------------------0-0-----------------------------

-------------------------------------------------------
-------------------------------------------------------
-------------5555-----5/7-7-7-7/9-9--------------------
3-33---------3333-----x/x-x-x-x/x-x--------------------
1-11-0-1-2-3-3333-----3/5-5-5-5/7-7--5-55555-0-0-0-0-0-
-----0-1-2-3-3333-3-0----------------5-55555-0-0-0-0---
Chorus lead2
----------------------------------------------13-15b----
13----13--------------------------13----13-15-13-15b----
12b14-12b14r12p10----10~-10-12/14----14-----------------
------------------12------------------------------------
--------------------------------------------------------
--------------------------------------------------------
Interlude                                   PH-
----------------------------------------------------------------
----------------------------------------------------------------
----------------------------------------------------------------
-----------------------------------------------4b6r4~-----------
-----5-4-3----------------3------------3-0-3-5------------------
0--0-------6/7-6~-6-0-3-5---3~-3-0-3-5--------------------------
                                             PH-
-----------------------------------------------------------
-----------------------------------------------------------
-----------------------------------------------------------
-----------------------------------------------------------
-----5-4-3----------------3------------3-0-3-5-5b7r5~------
0--0-------6/7-6~-6-0-3-5---3~-3-0-3-5---------------------
Verse
Chorus but play this instead of chorus lead1
----------------10------------------------------------------------------------
-------------10----13-10-----------------------------------12b-10-12b---------
----10-12b14-------------12b14r12-10----10~----------------12b-10-12b-10------
/12----------------------------------12-----12p10----10-12------------10-0----
--------------------------------------------------12---------------------0----
------------------------------------------------------------------------------
Play this instead of chorus lead2
----------------------------------------------------
----------------------------------------------------
----------------------------------------------------
5b7--5b7r5p3---3----------------3------5b7r5p3------
-------------5---5p3---3h5---------------------5----
---------------------5-----0-0----0-0---------------
Interlude
-------------------------------------------------------------------------
-------------------------------------------------------------------------
-------------------------------------------------------------------------
-------------------------------------------------------------------------
-------------------------------------------------------------------------
0--6/7-6-5-3-0--0--6/7-6-5-0-3b5r3--0--6/7-6-5-0-5--0--6/7-6-5-3-0v^-----
GT2 in ( )
----------------------------------------------------------------
----------------------------------------------------------------
------------------------------------------------7---------------
----------------------------(0)feedback---------5---------------
------------------------------------------------5-0-6/7-6-5-----
0--6/7-6-5-3-0--0--6/7-6-5-0-3b5r3-0--6/7-6-5-0-5-0-6/7-6-5-0---
Solo
--------------------------------------------------------------
13--------(13)~~~~---13-----13--------------------------------
12b14--------------0-12b14--12b14~-12b14r12p10-12-10-12b14-10~
-------------------0------------------------------------------
--------------------------------------------------------------
--------------------------------------------------------------
             PH--
---------------------------------------------
----------------------------10-13-



Comments about this tab

No comments/corrections found. Add your own



2005 ZMG, Inc.- All Right Reserved - Privacy Statement