Rockin Tabs Home

 :: Home > Tabs > S > Santana > Smooth

Santana - Smooth


This tab has not yet been rated for accuracy.Sorry, but you must be logged in to rate this tab so we can tell which songs you've already voted on, which will help prevent cheating.
Click here to log-in, or you can click here to register.
(Registration is free)


Click here for a plain text version of this song (for better printing)

Add this tab to your list of favorite tabs




#----------------------------------PLEASE NOTE---------------------------------#
#This file is the author's own work and represents their interpretation of the #
#song. You may only use this file for private study, scholarship, or research. #
#------------------------------------------------------------------------------#


Smooth
Santana

h=hammer on 
p=pull-off 
/=slide up(or fast pick) 
\=slide down 
^=bend full 
b=bend half 
^r or br=bend and release   
Jam key= A minor 
submited by: jms122589

 

intro 
|----------------------------- 
|----------------------------- 
|-------12----12h14----------- 
|-12h14----14----------------- 
|----------------------------- 
|----------------------------- 

------------------------------------ 
-------12-12br-----12-13------------ 
-13-14----------14-------14--------- 
------------------------------------ 
------------------------------------ 
------------------------------------ 

------------------------------ 
------------------------------ 
--------------12-------------- 
-12^-12^-12^-----12p10-------- 
------------------------------ 
-SKIP------------------------- 

-----------------------------| 
-----------------------------| 
-----------------------------| 
-12p10p9---------------------| 
---------12-11-12-/14-12-----| 
-SKIP------------------------| 

Man... 
Like... 
I... 
...cool  
|----------------------------------------------------| 
|-------------------12h13p12-15-13-12-------12-------| 
|-------------------------------------14-13----13-14-| 
|--------------12h14---------------------------------| 
|---------12h15--------------------------------------| 
|-12--15---------------------------------------------| 

...Mona Lisa  
|----------------| 
|-15^-15^-15--17-| 
|----------------| 
|----------------| 
|----------------| 
|----------------| 

...groove  
|----12--15p12--12----------12------| 
|-15^---------15--15--13-15----15^--| 
|-----------------------------------| 
|-----------------------------------| 
|-----------------------------------| 
|-----------------------------------| 

And... 
I would... 
...mood 
|-----------------------------| 
|-----------------12-13p12----| 
|--------------14----------14-| 
|-12////-14-15----------------| 
|-----------------------------| 
|-----------------------------| 

...so smooth
|----12----12-15p12--12--------------------------------| 
|-15^---15^--------15 -13--15p13-15p13-15p13-15p13-----| 
|---------------------------------------------------14-| 
|------------------------------------------------------| 
|------------------------------------------------------| 
|------------------------------------------------------| 

And... 
Well... 
You...  
Gimme... 
...about it  
|---------------------------------------------------- 
|-----------------12-12br----12-13--------------15^-- 
|-/14-------13-14----------14-----14----------------- 
|---------------------------------------------------- 
|---------------------------------------------------- 
|---------------------------------------------------- 

-------------------| 
------15^r13-------| 
-------------14----| 
-------------------| 
-------------------| 
-------------------| 

...shame
|--------| 
|--------| 
|--------| 
|-/14-12-| 
|--------| 
|--------| 

In... 
...me out 
|------------------------------------------------------| 
|-------------------12-13-12--13p12--------------------| 
|-------------12-14-----------------14-14-13-14-13-14--| 
|-12h14-12h14------------------------------------------| 
|------------------------------------------------------| 
|------------------------------------------------------| 

Out... 
You... 
...and round 
|----12--15p12--12----------12------| 
|-15^---------15--15--13-15----15^--| 
|-----------------------------------| 
|-----------------------------------| 
|-----------------------------------| 
|-----------------------------------| 

And if... 
I would... 
...your mood
|-------------------------------------| 
|--------------12-13---15-13-15-13-15-| 
|-----------14------------------------| 
|-12-14-15----------------------------| 
|-------------------------------------| 
|-------------------------------------| 

...so smooth
|----12----12-15p12--12----------------------------| 
|-15^---15^--------15--15--15p13-15p13-15p13-15p13-| 
|--------------------------------------------------| 
|--------------------------------------------------| 
|--------------------------------------------------| 
|--------------------------------------------------| 

|----------------------------------------------------------- 
|-------------------------------12------------------12--13-- 
|----------14-----------------------------------14---------- 
|----------------------------------------------------------- 
|----------------------------------------------------------- 
|----------------------------------------------------------- 
..........just.................under............well........ 

----------------------------------------------- 
----------------------15----------------------- 
----------------------------------------------- 
----------------------------------------------- 
----------------------------------------------- 
----------------------------------------------- 
.....................get....................... 

---12h13p12------12-----------------------5\------------- 
-----------15p13----13-15-13-15-15-13-----6\------------- 
------------------------------------------5\------------- 
------------------------------------------7\------------- 
------------------------------------------5\------------- 
--------------------------------------------------------- 
..kinda.lovin.............................gimme...........

-5---------7\--------------------------| 
-6---------9\--------------------------| 
-5---------7\--------------------------| 
-7---------9\--------------------------| 
-5---------7\--------------------------| 
---------------------------------------| 
make......real.......................

Solo! 
|--------------------------------------------------------- 
|-----------------12br---------------------------12-13-12- 
|-14-------13--14------14-------16p14p13------13---------- 
|------------------------------------------14------------- 
|--------------------------------------------------------- 
|-SKIP---------------------------------------------------- 

-----------------------------------------------------------| 
----------12------12-12h13-12----13p12---------------------| 
-14----------13---------------13-------14------------------| 
--------------------------------------------/14-/14-12-14--| 
-----------------------------------------------------------| 
-SKIP------------------------------------------------------| 

|-15^-15^-15^r-12----12----19br-17---12h15p12------ 
|-----------------15-------------------------15-17- 
|-------------------------------------------------- 
|-------------------------------------------------- 
|-------------------------------------------------- 
|-------------------------------------------------- 

------------------17-19-20-19-20-19-20-19-20-19-20-19-20-19- 
-13-15h17p15----17------------------------------------------ 
------------------------------------------------------------ 
------------------------------------------------------------ 
------------------------------------------------------------ 
------------------------------------------------------------ 

-20-19-20^--////20p17---17------------17-------------- 
---------------------20^------20^-20^----20p17--17---- 
----------------------------------------------19--19^- 
------------------------------------------------------ 
------------------------------------------------------ 
------------------------------------------------------ 

---17------------------------------------------------- 
-17--20p17-------------------------5-5-5555-6666-7777- 
----------19^r17--17-19\------------------------------- 
----------------19------------------------------------ 
------------------------------------------------------ 
------------------------------------------------------ 

--------------------------------| 
-8888-9999-10101010-11111111-12-| 
--------------------------------| 
--------------------------------| 
--------------------------------| 
--------------------------------| 

REPEAT CHORUS 

outro 
|------------------------------------------------------------ 
|-----------------12-12br----12-13----------15^-------------- 
|-/14-------13-14----------14------14----------------/14----- 
|------------------------------------------------------------ 
|------------------------------------------------------------ 
|------------------------------------------------------------ 

------------------------12-------------------------------| 
-------12-12br----12-13---13-12h13p12--------------------| 
-13-14----------14--------------------14p12h14-----------| 
---------------------------------------------------------| 
---------------------------------------------------------| 
---------------------------------------------------------| 

|------------------------------------------------------------ 
|-17-17-17-17-17-17----15------17-17-17-17-17-17----17------- 
|-17-17-17-17-17-17-16---------17-17-17-17-17-17-16---------- 
|------------------------------------------------------------ 
|------------------------------------------------------------ 
|------------------------------------------------------------ 

-12----12-15--12h15p12--12-------------17---17---17- 
----15^---------------15--15^-------15^--15^--15^--- 
---------------------------------------------------- 
---------------------------------------------------- 
---------------------------------------------------- 
---------------------------------------------------- 

----17----17----17----17--19-19-19-19^r--17-17-| 
-15^---17----17----17--------------------------| 
-----------------------------------------------| 
-----------------------------------------------| 
-----------------------------------------------| 
-----------------------------------------------| 

-----17----17---17-----19-19-20^20^--19p17----- 
--20^---20^ 20^-------------------------------- 
----------------------------------------------- 
----------------------------------------------- 
----------------------------------------------- 
----------------------------------------------- 

-15-12h15p12--12-------------------------------------------- 
------------15---17p13--13-15^15-13--15-13-15-13-15-13-15\-- 
----------------------14------------------------------------ 
------------------------------------------------------------ 
------------------------------------------------------------ 
------------------------------------------------------------ 

------------------------------------------------------------ 
-13-----------------------12-13-12-15-12-------------------- 
---14-14---------------14-----------------14---------------- 
-------------14-12--14-------------------------15-14-12h14-- 
------------------------------------------------------------ 
------------------------------------------------------------ 

|----------------------------------12-12------------20p19p17- 
|-------------------------12-13-15---------------17---------- 
|--------------------12-14--h--h----------------------------- 
|------12-14-15-14-15--h------------------------------------- 
|-12-15--h--h--p--h------------------------------------------ 
|---h---------(all solid sixteenths)------------------------- 

-20p19p17-20p19p17-20p19p17-20p19p17-20p19p17-20p19p17-20p19p17- 
---------------------------------------------------------------- 
---------------------------------------------------------------- 
---------------------------------------------------------------- 
---------------------------------------------------------------- 
---------------------------------------------------------------- 

-20p19p17-20p19p17-20p19p17-20p19p17-20p19p17-22--22p20p19-22p20p19- 
-------------------------------------------------------------------- 
-------------------------------------------------------------------- 
-------------------------------------------------------------------- 
-------------------------------------------------------------------- 
-------------------------------------------------------------------- 

-22p20p19-22p20p19-22^////////////////r^////--20h22------------- 
---------------------------------------------------22--20h20-20- 
---------------------------------------------------------------- 
---------------------------------------------------------------- 
---------------------------------------------------------------- 
---------------------------------------------------------------- 

-----------------------------------------|-17----------------17-19--- 
-20h22-22--20h22p20----------------------|---------18-17---17-------- 
-------------------21p19h21p19-----------|--------------------------- 
------------------------------22p19------|--------------------------- 
-----------------------------------------|--------------------------- 
-----------------------------------------|---------------------------\

hey this is my 2nd tab this is 100% right so play it and rate it also can
i have the admin for santana since its new?



Comments about this tab

No comments/corrections found. Add your own



2005 ZMG, Inc.- All Right Reserved - Privacy Statement