Rockin Tabs Home

 :: Home > Tabs > L > Lynyrd Skynyrd > Free Bird

Lynyrd Skynyrd - Free Bird


This tab has not yet been rated for accuracy.Sorry, but you must be logged in to rate this tab so we can tell which songs you've already voted on, which will help prevent cheating.
Click here to log-in, or you can click here to register.
(Registration is free)


Click here for a plain text version of this song (for better printing)

Add this tab to your list of favorite tabs




#----------------------------------PLEASE NOTE---------------------------------#
#This file is the author's own work and represents their interpretation of the #
#song. You may only use this file for private study, scholarship, or research. #
#------------------------------------------------------------------------------#


Lynyrd Skynyrd
Free Bird

SOLO

Repeat two times

E---------15----------15-----------------------------------
B----/18------15--18b----18b-18b---18-15-18--18rp15-18b----
G----------------------------------------------------------
D----------------------------------------------------------
A----------------------------------------------------------
E----------------------------------------------------------

E-------------------18------18------18---------------------
B----18-15-18b-18b-----18b-----18b-----18b-----------------
G----------------------------------------------------------
D----------------------------------------------------------
A----------------------------------------------------------
E----------------------------------------------------------

and

E-----18-----18-----18-----18-----18-----18-----18-----18--
B-18b----18b----18b----18b----18b----18b----18b----18b-----
G----------------------------------------------------------
D----------------------------------------------------------
A----------------------------------------------------------
E----------------------------------------------------------

E-------18-----18-----18-----18-----18-----18-----18----18-
B---18b----18b----18b----18b----18b----18b----18b----18b---
G----------------------------------------------------------
D----------------------------------------------------------
A----------------------------------------------------------
E----------------------------------------------------------

you pick each note

E----------------------------------------------------------
B---15-18-18b-15-18b-15-18-18b-15-18b-15-18-18b-15-18-18b--
G----------------------------------------------------------
D----------------------------------------------------------
A----------------------------------------------------------
E----------------------------------------------------------

E----------------------------------------------------------
B---15-18-18b-15-18b-15-18-18b-15-18b-15-18-18b-15-18-18b--
G----------------------------------------------------------
D----------------------------------------------------------
A----------------------------------------------------------
E----------------------------------------------------------


E----------------------------------------------------------
B---15-18-18b-15-18b-15-18-18b-15-18b-15-18-18b-15-18-18b--
G----------------------------------------------------------
D----------------------------------------------------------
A----------------------------------------------------------
E----------------------------------------------------------




E----------------------------------------------------------
B------18brp15-18b--18b~-----------------------------------
G----------------------------------------------------------
D----------------------------------------------------------
A----------------------------------------------------------
E----------------------------------------------------------

E----------------------------------------------------------
B------15h18p15-----15h18p15-----15h18p15-----15h18p15-----
G---17-----------17-----------17-----------17--------------
D----------------------------------------------------------
A----------------------------------------------------------
E----------------------------------------------------------

E----------------------------------------------------------
B------15h18p15-----15h18p15-----15h18p15-----15h18p15-----
G---17-----------17-----------17-----------17--------------
D----------------------------------------------------------
A----------------------------------------------------------
E----------------------------------------------------------

E----------------------------------------------------------
B------15h18p15-----15h18p15-----15h18p15-----15h18p15-----
G---17-----------17-----------17-----------17--------------
D----------------------------------------------------------
A----------------------------------------------------------
E----------------------------------------------------------

E----------------------------------------------------------
B------15h18p15-----15h18p15-----15h18p15-----15h18p15-----
G---17-----------17-----------17-----------17--------------
D----------------------------------------------------------
A----------------------------------------------------------
E----------------------------------------------------------



E----------------------------------------------------------
B---------15h18p15------15---------------------------------
G-----17------------17------15-------------15-----------15-
D---------------------------------17p15-17-----17p15-17----
A----------------------------------------------------------
E----------------------------------------------------------

E----------------------------------------------------------
B----------------------------------------------------------
G----------15--17p15-17p15----15-17p15-17p15-----15--17b---
D-------17-----------------17----------------17------------
A----------------------------------------------------------
E----------------------------------------------------------


E----------------------------------------------------------
B-----18--18--18--18--18--18--18--18--18--18--18--18--18---
G---------17b-----17b-----17b-----17b-----17b-----17b------
D----------------------------------------------------------
A----------------------------------------------------------
E----------------------------------------------------------

E----------------------------------------------------------
B-----18--18--18--18--18--18--18--18--18--18--18--18--18---
G---------17b-----17b-----17b-----17b-----17b-----17b------
D----------------------------------------------------------
A----------------------------------------------------------
E----------------------------------------------------------









E----------------------------------------------------------
B----18--18--18--------------------------------------------
G----17b-17b-17b---17p15-----------------------------------
D-------------------------17-------------------------------
A----------------------------------------------------------
E----------------------------------------------------------


E----------------------------------------------------------
B----------------------------------------------------------
G---15--------------15--------------15---------------------
D------17p15-------------17p15-----------17p15-------------
A------------17----------------17--------------17----------
E----------------------------------------------------------

E----------------------------------------------------------
B----------------------------------------------------------
G---15--------------15-------------------------------------
D------17p15-------------17p15-----15h17~------------------
A------------17----------------17--------------------------
E----------------------------------------------------------


E----------------------------------------------------------
B----------------------------------------------------------
G--------------------------------------15------------------
D-----15------15-17p15----15-17p15---------17~-------------
A---------17-----------17----------17----------------------
E----------------------------------------------------------

E----------------------------------------------------------
B----------------------------------------------------------
G-------------------------------------(15)-----------------
D-----15------15-17p15----15-17p15---------17~-------------
A---------17-----------17----------17----------------------
E----------------------------------------------------------



E----------------------------------------------------------
B----------------------------------------------------------
G----------------------------------------------------------
D----15------15--17-17-17p15---------17~-------------------
A--------17------------------17----------------------------
E----------------------------------------------------------


E----------------------------------------------------------
B----------------------------------------------------------
G----------------------------------------------------------
D----15------15-17p15-17p15-17p15-------15h17~-------------
A--------17-----------------------17-----------------------
E----------------------------------------------------------

E----------------------------------------------------------
B----------------------------------------------------------
G---------------15------------------15---------------15----
D------17p15--------17-----17p15--------17---17p15------17-
A------------17------------------17----------------17------
E----------------------------------------------------------

E----------------------------------------------------------
B----------------------------------------------------------
G---17b-17p15-------17b-17p15-------17b-17p15--------------
D-------------17p15-----------17p15----------17p15---------
A----------------------------------------------------------
E----------------------------------------------------------

E----------------------------------------------------------
B----------------------------------------------------------
G---17b-17p15-------17b-17p15-------17b-17p15--------------
D-------------17p15-----------17p15----------17p15---------
A----------------------------------------------------------
E----------------------------------------------------------



Hold onto that bend!


E----------------------------------------------------------
B----------------------------------------------------------
G----17b-17b-17b-17b-17b-17b-------------------------------
D----------------------------------------------------------
A----------------------------------------------------------
E----------------------------------------------------------

E----------------------------------------6----6----6-------
B-----6b-6b-6b-6-3-6-6r-3-6b-6-3-6b-6b-6b--6b---6b----6b---
G----------------------------------------------------------
D----------------------------------------------------------
A----------------------------------------------------------
E----------------------------------------------------------

E------3------3-------------------------------6----6-------
B---/6---3-6b---6b-6b-6-3-6-6r-3-6b-6-3-6b-6b---6b---6b----
G----------------------------------------------------------
D----------------------------------------------------------
A----------------------------------------------------------
E----------------------------------------------------------

E----------------------------------------------------------
B-----8b-8b-8b--6-8~----8-6-8~--8-6-8~--8-6-8~--8-6-8~-----
G----------------------------------------------------------
D----------------------------------------------------------
A----------------------------------------------------------
E----------------------------------------------------------

E-------------------------------------------------6-8------
B----8-6-8~--8-6-8~-----8b-8b-8b--6-8~--8-6-8~--8----------
G----------------------------------------------------------
D----------------------------------------------------------
A----------------------------------------------------------
E----------------------------------------------------------

E-----8rp6-----6--8rp6-------------------------------------
B-----------8----------8--6--8~---8-6-8~--8-6-8~-8b-8b-8b--
G----------------------------------------------------------
D----------------------------------------------------------
A----------------------------------------------------------
E----------------------------------------------------------

E----------------------------------------------------------
B----------------------------------------------------------
G-------12-12--12~------14p12------12-12---12~-----14p12---
D----14-----14------14---------14------14------14----------
A----------------------------------------------------------
E----------------------------------------------------------

E----------------------------------------------------------
B----------------------------------------------------------
G-------12-12----12~-----12~-------------------------------
D----14------14------14------------------------------------
A----------------------------------------------------------
E----------------------------------------------------------




E----------------(6)---------------6-----------------------
B--------6-8p6---6-8p6---6-8p6-------8p6-------------------
G-----/7-------7-------7-------7---------7-----------------
D----------------------------------------------------------
A----------------------------------------------------------
E----------------------------------------------------------

E----------------(6)---------------6-----------------------
B--------6-8p6---6-8p6---6-8p6-------8p6-------------------
G------7-------7-------7-------7---------7-----------------
D----------------------------------------------------------
A----------------------------------------------------------
E----------------------------------------------------------

E----------------(6)---------------6-----------------------
B--------6-8p6---6-8p6---6-8p6-------8p6-------------------
G------7-------7-------7-------7---------7-----------------
D----------------------------------------------------------
A----------------------------------------------------------
E----------------------------------------------------------








E---15----------15----------15----------15-----------------
B------18p15-------18p15-------18p15-------18p15-----------
G------------17----------17----------17----------17--------
D----------------------------------------------------------
A----------------------------------------------------------
E----------------------------------------------------------

E---15----------15----------15----------15-----------------
B------18p15-------18p15-------18p15-------18p15-----------
G------------17----------17----------17----------17--------
D----------------------------------------------------------
A----------------------------------------------------------
E----------------------------------------------------------

E---15----------15----------15----------15-----------------
B------18p15-------18p15-------18p15-------18p15-----------
G------------17----------17----------17----------17--------
D----------------------------------------------------------
A----------------------------------------------------------
E----------------------------------------------------------

E---15----------15----------15----------15-----------------
B------18p15-------18p15-------18p15-------18p15-----------
G------------17----------17----------17----------17--------
D----------------------------------------------------------
A----------------------------------------------------------
E----------------------------------------------------------

E---15----------15----------15----------15-----------------
B------18p15-------18p15-------18p15-------18p15-----------
G------------17----------17----------17----------17--------
D----------------------------------------------------------
A----------------------------------------------------------
E----------------------------------------------------------


E---15----------15----------15----------15-----------------
B------18p15-------18p15-------18p15-------18p15-----------
G------------17----------17----------17----------17--------
D----------------------------------------------------------
A----------------------------------------------------------
E----------------------------------------------------------


E---15----------15----------15----------15-----------------
B------18p15-------18p15-------18p15-------18p15-----------
G------------17----------17----------17----------17--------
D----------------------------------------------------------
A----------------------------------------------------------
E----------------------------------------------------------


E---15----------15----------15----------15-----------------
B------18p15-------18p15-------18p15-------18p15-----------
G------------17----------17----------17----------17--------
D----------------------------------------------------------
A----------------------------------------------------------
E----------------------------------------------------------


E---15----------15----------15----------15-----------------
B------18p15-------18p15-------18p15-------18p15-----------
G------------17----------17----------17----------17--------
D----------------------------------------------------------
A----------------------------------------------------------
E----------------------------------------------------------


E---15----------15----------15----------15-----------------
B------18p15-------18p15-------18p15-------18p15-----------
G------------17----------17----------17----------17--------
D----------------------------------------------------------
A----------------------------------------------------------
E----------------------------------------------------------


E---15----------15----------15----------15-----------------
B------18p15-------18p15-------18p15-------18p15-----------
G------------17----------17----------17----------17--------
D----------------------------------------------------------
A----------------------------------------------------------
E----------------------------------------------------------








E---18p15----18p15----18p15----18p15----18p15----18p15-----
B---------15-------15-------15-------15-------15-------15--
G----------------------------------------------------------
D----------------------------------------------------------
A----------------------------------------------------------
E----------------------------------------------------------

E---18p15----18p15----18p15----18p15----18p15----18p15-----
B---------15-------15-------15-------15-------15-------15--
G----------------------------------------------------------
D----------------------------------------------------------
A----------------------------------------------------------
E----------------------------------------------------------

E---13p10----13p10----13p10----13p10----13p10----13p10-----
B---------10-------10-------10-------10-------10-------10--
G----------------------------------------------------------
D----------------------------------------------------------
A----------------------------------------------------------
E----------------------------------------------------------








(6 :56)

E----15--15--15--15--15--15--15-(15-15-15-15-15-15)--------
B----18b-18b-18b-18b-18b-18b-18r-18-18-18-15-15-15---------
G----------------------------------------------------------
D----------------------------------------------------------
A----------------------------------------------------------
E----------------------------------------------------------

E----------------------------------------------------------
B---15--15--15--15-(15--15-15-15)--------------------------
G---17b-17b-17b-17b-17r-17-17-17-----15--------------------
D---------------------------------17----17~----------------
A----------------------------------------------------------
E----------------------------------------------------------

E----------------------------------------------------------
B----------------------------------------------------------
G-----------------15------------------------15-------------
D-------17p15---------17~---------17p15---------17~--------
A-------------17-------------------------17----------------
E----------------------------------------------------------


E----------------------------------------------------------
B----------------------------------------------------------
G---17b-17p15-------17b-17p15-------17b-17p15--------------
D-------------17p15-----------17p15----------17p15---------
A----------------------------------------------------------
E----------------------------------------------------------

E----------------------------------------------------------
B----------------------------------------------------------
G---17b-17p15-------17b-17p15-------17b-17p15--------------
D-------------17p15-----------17p15----------17p15---------
A----------------------------------------------------------
E----------------------------------------------------------


E----------------------------------------------------------
B------15-18-----------------------------------------------
G-------------17br-15-17------15--12~--------12~-----------
D-------------------------17-------------14----------------
A----------------------------------------------------------
E----------------------------------------------------------


E----------------------------------------------------------
B----------------------------------------------------------
G----12--14b--12-14------12-14-12------12~-----------------
D--14----------------14------------14----------------------
A----------------------------------------------------------
E----------------------------------------------------------

E----------------------------------------------------------
B--------15br----------------------------------------------
G--------------14br--12-14-12-14-12------12~---------------
D------------------------------------14--------------------
A----------------------------------------------------------
E----------------------------------------------------------


And we hear multiple guitars here, play this for effect


Repeat four times...

E----------------------------------------------------------
B----------------------------------------------------------
G------12-------12~------12-------12~--------12-14--12~----
D-----------14----------------14---------14----------------
A----------------------------------------------------------
E----------------------------------------------------------

E----------------------------------------------------------
B-----15----15----15----15---------------------------------
G-----14b---14b---14b---14b--------------------------------
D----------------------------------------------------------
A----------------------------------------------------------
E----------------------------------------------------------






Then (7:47)

E----------------------------------------------------------
B---18-----18-----18-----18-----18-----18-----18-----18----
G------17b----17b----17b----17b----17b----17b----17b-------
D----------------------------------------------------------
A----------------------------------------------------------
E----------------------------------------------------------

E----------------------------------------------------------
B---18-----18-----18-----18-----18-----18-----18-----18----
G------17b----17b----17b----17b----17b----17b----17b-------
D----------------------------------------------------------
A----------------------------------------------------------
E----------------------------------------------------------

E---18-----18-----18-----18-----18-----18-----18-----18----
B------18b----18b----18b----18b----18b----18b----18b-------
G----------------------------------------------------------
D----------------------------------------------------------
A----------------------------------------------------------
E----------------------------------------------------------

E-------18-----18-----18-----18-----18-----18-----18-------
B---18b----18b----18b----18b----18b----18b----18b----------
G----------------------------------------------------------
D----------------------------------------------------------
A----------------------------------------------------------
E----------------------------------------------------------

E-------18-----18-----18-----18-----18-----18-----18-------
B---18b----18b----18b----18b----18b----18b----18b----------
G----------------------------------------------------------
D----------------------------------------------------------
A----------------------------------------------------------
E----------------------------------------------------------

E--22-----22-----22-----22-----22-----22-----22-----22-----
B-----22b----22b----22b----22b----22b----22b----22b----22b-
G----------------------------------------------------------
D----------------------------------------------------------
A----------------------------------------------------------
E----------------------------------------------------------

E--22-----22-----22-----22-----22-----22-----22-----22-----
B-----22b----22b----22b----22b----22b----22b----22b----22b-
G----------------------------------------------------------
D----------------------------------------------------------
A----------------------------------------------------------
E----------------------------------------------------------

E--22-----22-----22-----22-----22-----22-----22-----22-----
B-----22b----22b----22b----22b----22b----22b----22b----22b-
G----------------------------------------------------------
D----------------------------------------------------------
A----------------------------------------------------------
E----------------------------------------------------------







(8:12)The most amazing riff in the song.

E----------------------------------------------------------
B---15-----------------------------------------------------
G------15b----15----17br17p15-17----15-17-15----17----15---
D----------17----17--------------17----------17----17------
A----------------------------------------------------------
E----------------------------------------------------------

E----------------------------------------------------------
B----------------------------------------------------------
G------15-17-15----17----15b-------------------------------
D---17----------17----17-----17~---------------------------
A----------------------------------------------------------
E----------------------------------------------------------

E---15----------15----------15----------15-----------------
B------18p15-------18p15-------18p15-------18p15-----------
G------------17----------17----------17----------17--------
D----------------------------------------------------------
A----------------------------------------------------------
E----------------------------------------------------------

E---15----------15----------15----------15-----------------
B------18p15-------18p15-------18p15-------18p15-----------
G------------17----------17----------17----------17--------
D----------------------------------------------------------
A----------------------------------------------------------
E----------------------------------------------------------

E---15----------15----------15----------15-----------------
B------18p15-------18p15-------18p15-------18p15-----------
G------------17----------17----------17----------17--------
D----------------------------------------------------------
A----------------------------------------------------------
E----------------------------------------------------------

E---15----------15----------15----------15-----------------
B------18p15-------18p15-------18p15-------18p15-----------
G------------17----------17----------17----------17--------
D----------------------------------------------------------
A----------------------------------------------------------
E----------------------------------------------------------

E---15----------15----------15----------15-----------------
B------18p15-------18p15-------18p15-------18p15-----------
G------------17----------17----------17----------17--------
D----------------------------------------------------------
A----------------------------------------------------------
E----------------------------------------------------------

E---15----------15----------15----------15-----------------
B------18p15-------18p15-------18p15-------18p15-----------
G------------17----------17----------17----------17--------
D----------------------------------------------------------
A----------------------------------------------------------
E----------------------------------------------------------


E----15--15--15--15--15--15--15-(15-15-15-15-15-15)--------
B----18b-18b-18b-18b-18b-18b-18r-18-18-18-15-15-15---------
G----------------------------------------------------------
D----------------------------------------------------------
A----------------------------------------------------------
E----------------------------------------------------------

E----------------------------------------------------------
B---15--15--15--15-(15--15-15-15)--------------------------
G---17b-17b-17b-17b-17r-17-17-17-----15--------------------
D---------------------------------17----17~----------------
A----------------------------------------------------------
E----------------------------------------------------------


Then

(8:57)


E----------------------------------------------------------
B---18b-18-15----------------------------------------------
G-------------17br-15-17~--15------17----------------------
D------------------------------17~-------------------------
A----------------------------------------------------------
E----------------------------------------------------------

E----------------------------------------------------------
B----------------------------------------------------------
G-----3---5----3-5-3---3-5-3b------------------------------
D-------5---5--------5--------5~---------------------------
A----------------------------------------------------------
E----------------------------------------------------------





End




E----------------------------------------------------------
B----------------------------------------------------------
G---------------5-7h8p7p5--7-8--10--10b~-------------------
D---5~--5-7-8----------------------------------------------
A----------------------------------------------------------
E----------------------------------------------------------


there are two ways of playing the ending. you choose

1

E----------------------------------------------------------
B----------------------------------------------------------
G----10-8-7-7h8h10p8p7/5-7p5/3-3h5h7p5p3/2-2h3h5p3p2p0-----
D------------------------------------------------------3-2-
A----------------------------------------------------------
E----------------------------------------------------------

2

E----------------------------------------------------------
B----------------------------------------------------------
G---10-8-7-7h8h10p8p7/5-7p5/3-3h5p3/2-2h3h5p3p2p0----------
D--------------------------------------------------3-2~----
A----------------------------------------------------------
E----------------------------------------------------------




E----------------------------------------------------------
B----------------------------------------------------------
G---------5-7h8p7-5-7-8-10-10brp8/7-8p7--------------------
D-----7-8--------------------------------8-10bbb~----------
A----------------------------------------------------------
E----------------------------------------------------------

hey this is the solo for free bird if the other solo was awsom but it was
missin this so this is 100% acurate so play it rate it thanx jms122589

questions comments jms122589@hotmail.com
AIM jms122589



Comments about this tab

No comments/corrections found. Add your own



2005 ZMG, Inc.- All Right Reserved - Privacy Statement