Rockin Tabs Home

 :: Home > Tabs > S > Stephen Speaks > Passenger Seat

Stephen Speaks - Passenger Seat


This tab has not yet been rated for accuracy.Sorry, but you must be logged in to rate this tab so we can tell which songs you've already voted on, which will help prevent cheating.
Click here to log-in, or you can click here to register.
(Registration is free)


Click here for a plain text version of this song (for better printing)

Add this tab to your list of favorite tabs




#----------------------------------PLEASE NOTE---------------------------------#
#This file is the author's own work and represents their interpretation of the #
#song. You may only use this file for private study, scholarship, or research. #
#------------------------------------------------------------------------------#


Stephen Speaks
ďPassenger SeatĒ
No more doubt
Tabbed by: Daniel Maloney



Ok there are two guitars in this song. Iím going to tab both of them out.
Youíll also have to listen to the song to figure out the strumming pattern. 



Guitar 1 (capo 5th fret)
	   D		  D/C#    Bm7	G	
E--------------2-2---2-------2------3------0----------------------
B------3-------3-3---3-------3------3------3----------------------
G----2---0h2---2-2---2-------2------0------0----------------------
D--0-----------------0-------4------0------2----------------------
A--------------------4-------2------2------0----------------------
E--------------------x-------x------3------x----------------------

Enter guitar 2 (no capo)
G	D/F	Em	Am	C	D7sus4
E-----3----------3-----0-----0-------0------3------------------
B-----3----------3-----0-----1-------1------1------------------
G-----0----------0-----0-----2-------0------2------------------
D-----0----------0-----2-----2-------2------0------------------
A-----2----------0-----2-----0-------3------x------------------
E-----3----------2-----0-----0-------0------x------------------

Verse:
G	    D/F    			Em
I look at her and have to smile
				  Am	
As we go driving for a while
				C		D7sus4
Her hair blowing in the open window of my car
As we go the traffic lights
Watch them glimmer in her eyes
In the darkness of the evening

Chorus:

And Iíve got all that I need
Right here in the passenger seat
And I canít keep my eyes on the road
Knowing that sheís inches from me

Verse 2:
We stop to get something to drink
My mind clouds and I canít think
Scared to death to say I love her
Then the moon peaks from the clouds
Hear my heart it beats so loud
Try to tell her simply

Chorus

Bridge:
Cadd9	 Bm7	Cadd9		D?
And I know this love grows

Interlude: (same as verse and chorus, not sure about the solo)

Chorus

Cadd9- x32033
D?- xx0231



Comments about this tab

No comments/corrections found. Add your own



2005 ZMG, Inc.- All Right Reserved - Privacy Statement