Rockin Tabs Home

 :: Home > Tabs > F > Foo Fighters > Halo

Foo Fighters - Halo


This tab has not yet been rated for accuracy.Sorry, but you must be logged in to rate this tab so we can tell which songs you've already voted on, which will help prevent cheating.
Click here to log-in, or you can click here to register.
(Registration is free)


Click here for a plain text version of this song (for better printing)

Add this tab to your list of favorite tabs




#----------------------------------PLEASE NOTE---------------------------------#
#This file is the author's own work and represents their interpretation of the #
#song. You may only use this file for private study, scholarship, or research. #
#------------------------------------------------------------------------------#


Band: Foo Fighters
Title: Halo
Album: One By One (2002)
Tabbed By: Ian Reid
Tuning: Dropped D Tuning

Intro
Gtr.1 (work out timing and strumming)                  
e|-------------------------------------|
B|-------------------------------------| 
G|------------------------------------| 
D|--5----5---------------------------| 
A|--7----5---------------------------| 
D|--5----5---------------------------| 

Gtr.2 (plays these notes, you work out timing, strumming of each single note,
it aint too hard)
E|--5------------------------------------|
B|--8------------------------------------|
G|--7------------------------------------|
D|---------------------------------------|
A|---------------------------------------|
D|---------------------------------------|

Verse
Gtr.1 (listen for timing and strumming)
e|----------------|
B|----------------|
G|----------------|
D|--5----3----7---|
A|--5----3----7---|
D|--5----3----7---|

Gtr.2 (listen for timing and strumming)
e|--5----3----7---| 
B|--8----6---10---|
G|--7----5----9---|
D|----------------|
A|----------------|
D|----------------|

Pre Chorus
(”Wait to pray you'll pick on me…”)
(Gtr.1, Listen for timing & Strumming)
E|--------------------------------------------------------------------|
B|--------------------------------------------------------------------|
G|--5----7----5----7----5----7----------------------------------------|
D|--3----5----3----5----3----5-----7----5-----------------------------|
A|--3----5----3----5----3----5-----5----3-----------------------------|
D|--3----5----3----5----3----5----------------------------------------|

(Gtr.2)
E|-------------------------------------------------------------------|
B|--6----8----6----8----6----8----10----8----------------------------|
G|--5----7----5----7----5----7-----9----7----------------------------|
D|-------------------------------------------------------------------|
A|-------------------------------------------------------------------|
D|-------------------------------------------------------------------|

Chorus
Gtr.1 & Gtr.2
E|---------------------------------|
B|---------------------------------|
G|-----------5---4---3---2---------|
D|--5---0---3---2---1---0---5---7--|
A|--5---0---3---2---1---0---3---5--|
D|--5---0---3---2---1---0-------0--|
  
Interlude part.1  (“go…”) & part.2 (“disappear the light is fading…”)
(Gtr.1 & Gtr.2)
E|--------------------------------------------------------|
B|--------------------------------------------------------|
G|-5-5-5-5---7-7-7-7---8-8-8-8---10-10-10-10--------------|
D|-5-5-5-5---7-7-7-7---8-8-8-8---10-10-10-10--------------|
A|-3-3-3-3---5-5-5-5---6-6-6-6----8--8--8--8--------------|
D|--------------------------------------------------------|

Solo  (This is the closest I could get, it sounds alright, sorry if it aint
100% but I tried)
(Gtr.1)
E|----------------------------------------------------------------------------
B|--12~—8~—7~—-------------------------10--8—7-----------------7-8-10—8-10-12-
G|---------------9-9-9—7—5------8-10------------------9—11--12----------------
D|----------------------------------8-----------------------------------------
A|----------------------------------------------------------------------------
D|----------------------------------------------------------------------------

E|----------------------------------------------------------------------------
B|--7-8-10---8-----------------------------10--8—7--------------------7-8-10--
G|----------8---7---9-9-9—7—5---8-10-------------9—11—12----------------------
D|-----------------------------------8----------------------------------------
A|----------------------------------------------------------------------------
D|----------------------------------------------------------------------------

(Gtr.2 Plays the chorus under Gtr.1 who plays the solo)

OUTRO (same as intro)
(Gtr.1, this is just what notes it ends on)
E|----------------------------------------------------|
B|----------------------------------------------------|
G|----------------------------------------------------|
D|--5-------------------------------------------------|
A|--5-------------------------------------------------|
E|--5-------------------------------------------------|

(Gtr.2, I’m not gonna down the strumming pattern, its these notes)
E|--5------------------------------------------------|
B|--8------------------------------------------------|
G|--7------------------------------------------------|
D|---------------------------------------------------|
A|---------------------------------------------------|
D|---------------------------------------------------|


 STRUCTURE FOR “HALO”
Intro
Verse
Pre-Chorus
Chorus
Intro
Verse
Pre-Chorus
Chorus
Interlude (part.1)
Interlude (part.2)
Solo
Chorus
Interlude (part.1)
Outro (same as intro)



Comments about this tab

No comments/corrections found. Add your own



2005 ZMG, Inc.- All Right Reserved - Privacy Statement