Rockin Tabs Home

 :: Home > Tabs > D > Dave Matthews Band > Dancing Nancies

Dave Matthews Band - Dancing Nancies


This tab has not yet been rated for accuracy.Sorry, but you must be logged in to rate this tab so we can tell which songs you've already voted on, which will help prevent cheating.
Click here to log-in, or you can click here to register.
(Registration is free)


Click here for a plain text version of this song (for better printing)

Add this tab to your list of favorite tabs




#----------------------------------PLEASE NOTE---------------------------------#
#This file is the author's own work and represents their interpretation of the #
#song. You may only use this file for private study, scholarship, or research. #
#------------------------------------------------------------------------------#


Dancing Nancies
Dave Matthews Band

Tuning: E-A-D-G-B-E
Capo: None

Intro
E:------------------------       E:------------------------
B:------------------------       B:------------------------
G:------------------------       G:------------------------
D:------------------------   or  D:-5-5---5-5---4-4---4-4--
A:------------------------       A:------------------------
E:-3-3---3-3---2-2---2-2--       E:-3-3---3-3---2-2---2-2--
   2 2   2 2   1 1   1 1 


Verse
When you hear those open strings, he just plays the B and high E open,
rhythmically
E:-----------
B:-----------
G:-4------4-- <---4
D:-x------4-- <---3
A:-2------x--
E:-3------2-- <---1on2


Fill
Sometimes played before going into verse
E:-0--------2--
B:-0--------2--
G:-------------
D:-------------
A:-------------
E:-------------
           1


"And I..."
Played right before "Look up at the sky"
E:----
B:----
G:-7--
D:-7--
A:-x--
E:-5--


"And my mouth..."
E:-----------
B:-----------
G:-6------6--
D:-7------7--
A:-5------x--
E:--------5--


"Sing and Dance..."
E:-------2--------------
B:-------3-----2--------
G:-7-----2-----2-----6--
D:-x-----0-----2-----6--
A:-5-----------------x--
E:-7-----------------4--


End Jam
During end jam with band he plays verse or sometimes this at different speeds
E:------------
B:------------
G:------------
D:-5-----/16--
A:-x------x---
E:-3-----/14--



Comments about this tab

No comments/corrections found. Add your own



2005 ZMG, Inc.- All Right Reserved - Privacy Statement