Rockin Tabs Home

 :: Home > Tabs > D > Dave Matthews Band > I'll Back You Up

Dave Matthews Band - I'll Back You Up


This tab has not yet been rated for accuracy.Sorry, but you must be logged in to rate this tab so we can tell which songs you've already voted on, which will help prevent cheating.
Click here to log-in, or you can click here to register.
(Registration is free)


Click here for a plain text version of this song (for better printing)

Add this tab to your list of favorite tabs




#----------------------------------PLEASE NOTE---------------------------------#
#This file is the author's own work and represents their interpretation of the #
#song. You may only use this file for private study, scholarship, or research. #
#------------------------------------------------------------------------------#


I'll Back You Up
Dave Matthews Band

hey everyone, hope you enjoy the tab.
any questions email me: stephencalvird@hotmail.com
ps this is my first tab so be mericful.
standard tunning


VERSE:
E-0---X---2--0-------------0-------------------------------------------------
B-2---5---2--0-------------2-------------------------------------------------
G-2---4---2--1-------------2-------------------------------------------------
D-2---2---4--2--2/4-4------2-------------------------------------------------
A-0---X---4--2----4-4--4/2-0-------------------------------------------------
E-----4---2--0---------------------------------------------------------------


CHORUS:

E-0--1--3--0-----------------------------------------------------------------
B-2--1--3--0-----------------------------------------------------------------
G-2--2--4--1-----------------------------------------------------------------
D-2--3--5--2-----------------------------------------------------------------
A-0--3--5--2-----------------------------------------------------------------
E----1--3--0-----------------------------------------------------------------


LYRICS:

I remember thinking
I'll go on forever only knowing
I'll see you again
But I know
The touch of you is so hard to remember
But like that touch I know no other

And for sure we have danced
In the risk of each other
Would like to dance
Around the world with me

I'll be falling all about my own thing
And I know your the heaviest weight
When your not here that's hung
Around my head

And your lips burn wild
Thrown from the face of a child
And in your eyes
The seeing of the greatest few
Do what you will, always
Walk where you like, your steps
Do as you please, I'll back you up

I remember thinking
Sometimes we walk
Sometimes we run away
But I know
No matter how fast we are running
Somehow we keep
Somehow we keep up with each other

I'll be falling all about my own thing
And i know your the heaviest weight
When your not here that's hung
Around my head

And your lips burn wild
Thrown from the face of a child
And in your eyes
The seeing of the greatest few
Do what you will, always
Walk where you like, your steps
Do as you please, I'll back you up


ENJOY



Comments about this tab

No comments/corrections found. Add your own



2005 ZMG, Inc.- All Right Reserved - Privacy Statement