Rockin Tabs Home

 :: Home > Tabs > F > Foo Fighters > All My Life

Foo Fighters - All My Life


This tab has been rated a 5.00 out of 5 for accuracy.
(1 vote)
Sorry, but you must be logged in to rate this tab so we can tell which songs you've already voted on, which will help prevent cheating.
Click here to log-in, or you can click here to register.
(Registration is free)


Click here for a plain text version of this song (for better printing)

Add this tab to your list of favorite tabs




#----------------------------------PLEASE NOTE---------------------------------#
#This file is the author's own work and represents their interpretation of the #
#song. You may only use this file for private study, scholarship, or research. #
#------------------------------------------------------------------------------#


All My Life
Foo Fighters

palm slightly muted

e]--------------------------------
b]--------------------------------
g]--------------------------------
d]--------------------------------
a]-5-5--5-5-5--5-5-5-5------------
e]-3-3--3-3-3--3-3-3-3------------ repeat as many times as needed


e]-------------------------------
b]-------------------------------
g]-------------------------------
d]-------------------------------
a]-5-5-5-4-5-5--4-5-5-5-5--8-8---
e]-3-3-3-2-3-3--2-3-3-3-3--6-6---

e]-------------------------------
b]-------------------------------
g]-------------------------------
d]-------------------------------
a]-4-5-4-5-5--4-5-5-5-5--10-10---
e]-2-3-2-3-3--2-3-3-3-3--8--8----

pick fast and hard for bottom 2 strings in verse

verse

e]-------------------------------
b]-------------------------------
g]--3------3---3------3----------
d]-------------------------------
a]-5--5-5-5---5--5-5-5----8-8----
e]-3--3-3-3---3--3-3-3----6-6----

e]-------------------------------
b]-------------------------------
g]--3------3---3------3----------
d]-------------------------------
a]-5--5-5-5---5--5-5-5----10-10--
e]-3--3-3-3---3--3-3-3----8--8---


Chorus

   Hey.. I love it.. Weight keeping.. down
e]------------------------------------------
b]------------------------------------------
g]----------3------------------2------------
d]----------3-----------2------3--------3---
a]--5-------5-----------3---------------5---
e]--3-------3---------------------------6---
 
this is where all the backround slurred notes are and where he sings done, done,
onto the next one
e]-3------------------------------
b]-3------------------------------
g]-3------------------------------
d]-5------------------------------       keep goin as long as it takes
a]-5-5--5-5-5--5-5-5--5-5---------        and get louder when needed
e]-3-3--3-3-3--3-3-3--3-3---------

pick hard
e]--------------------------------
b]--------------------------------
g]--------------------------------
d]--------------------------------       
a]-5-5--5-5-5--5-5-5--5-5---------       
e]-3-3--3-3-3--3-3-3--3-3---------

chorus
 
then this the rest on the song    end (pick hard)
e]--------------------------        e|------
b]--------------------------        b|------
g]--------------------------        g|------
d]--------------------------        d|------       
a]-5-5--5-5-5--5-5-5--5-5---        a|-5-5--       
e]-3-3--3-3-3--3-3-3--3-3---        e|-3-3--



Comments about this tab

No comments/corrections found. Add your own



2005 ZMG, Inc.- All Right Reserved - Privacy Statement