Rockin Tabs Home

 :: Home > Tabs > C > Creed > Freedom Fighter

Creed - Freedom Fighter


This tab has not yet been rated for accuracy.Sorry, but you must be logged in to rate this tab so we can tell which songs you've already voted on, which will help prevent cheating.
Click here to log-in, or you can click here to register.
(Registration is free)


Click here for a plain text version of this song (for better printing)

Add this tab to your list of favorite tabs




#----------------------------------PLEASE NOTE---------------------------------#
#This file is the author's own work and represents their interpretation of the #
#song. You may only use this file for private study, scholarship, or research. #
#------------------------------------------------------------------------------#


Author/Artist: Creed
Title: Freedom Fighter
Album: Weathered
Transcribed by: Pete
Email: slipknot0863616 (AIM)

Hey all this is Pete. My Sacrififce is simple and so is this.
Tremonti is yet again at D A D G B E. No suprise there.
Anyway have fun with this one.

----------------------|--------------|----------------|-----------------------
----------------------|--------------|----------------|-----------------------
----------------------|--b-----------|-b-b-b----------|-----------------------
--------------------3-|--5-----3-----|-5-5-5-----3----|--------------------3--
---------3------3-5---|------5---5-3-|---------5---5-3|---------3------3-5----
-0-0-3-5----0-0-------|--------------|----------------|-0-0-3-5----0-0--------
                                                       |--------PM----------|

-|-----------|-------------|---------------------|------------------------|---
-|-----------|-------------|---------------------|------------------------|---
-|-----------|-------------|---------------------|------------------------|---
-|-0-------0-|-------------|---p-------------p---|-----h---p---p------h---|---
-|-0-------0-|-3-0-----5-0-|-3---0---p---0-1---0-|---5---6---5---3--5---6-|---
-|-0-0-0-0-0-|-----5-0-5-0-|-------5---0---------|-0----------------------|---
     |-PM-|

-------|----------------------------------------------------------------------
-------|----------------------------------------------------------------------
-------|----------------------------------------------------------------------
-8-8-8-|----------------------------------------------------------------------
-6-6-6-|----------------------------------------------------------------------
-------|----------------------------------------------------------------------



Comments about this tab

No comments/corrections found. Add your own



2005 ZMG, Inc.- All Right Reserved - Privacy Statement