Rockin Tabs Home

 :: Home > Tabs > H > Hoobastank > Crawling In the Dark

Hoobastank - Crawling In the Dark


This tab has not yet been rated for accuracy.Sorry, but you must be logged in to rate this tab so we can tell which songs you've already voted on, which will help prevent cheating.
Click here to log-in, or you can click here to register.
(Registration is free)


Click here for a plain text version of this song (for better printing)

Add this tab to your list of favorite tabs




#----------------------------------PLEASE NOTE---------------------------------#
#This file is the author's own work and represents their interpretation of the #
#song. You may only use this file for private study, scholarship, or research. #
#------------------------------------------------------------------------------#


Crawling In the Dark
Hoobastank

Open E
E B E G# B E

Intro: w/ delay, p.m. throughout

x3
e----------------------------------------
b----------------------------------------
g----------------------------------------
e-------9---10---9----------------7------
b-7-7-7---7----7---7-10-7-9-0-5-5--------
e----------------------------------------

e----------------------------------------
b----------------------------------------
g----------------------------------------
e-------5---4---7---5---4----------------
b-3-3-3---3---3---5---5---5-5-5-5--12---
e----------------------------------12---

e-----------------------------------------------------------
b-----------------------------------------------------------
g-----------------------------------------------------------
e-----------5-5-5-5----------------------5-5-5-5------------
b-0h2-2-0-2-3-3-2-2-5-5-0---0--0h2-2-0-2-3-3-2-2-5-5-0---0--
e-0h2-2-0-2---------5-5-0---0--0h2-2-0-2---------5-5-0---0--

e-----------------------------------------------------------------
b-----------------------------------------------------------------
g-----------------------------------------------------------------
e-----------5-5-5-5------------12--121212121212-------------------
b-0h2-2-0-2-3-3-2-2-5-5-0--0-0-10--101010101010-0-5-5-5-5-0-0-0-0-
e-0h2-2-0-2---------5-5-0--0-0-10--101010101010-0-5-5-5-5-0-0-0-0-

Verses: Riff A

e-----------------------------------------------------------------
b-----------------------------------------------------------------
g-----------------------------------------------------------------
e-------9---10---9----------------7-------9---10---9-------------7
b-7-7-7---7----7---7-10-7-9-0-5-5---7-7-7---7----7---7-10-7-9-0-5-
e-----------------------------------------------------------------

e-----------------------------------------------------------------
b-----------------------------------------------------------------
g-----------------------------------------------------------------
e-------5---4---7---5---4---------------5---4---7---5---4---------
b-3-3-3---3---3---5---5---5-5-5-5-3-3-3---3---3---5---5---5-5-5-5-
e-----------------------------------------------------------------

Chorus: x2

e-----------------------------------------------------------------
b-----------------------------------------------------------------
g-----------------------------------------------------------------
e-----------5-5-5-5---------------------5-5-5-5-------------------
b-0h2-2-0-2-3-3-2-2-5-5-0---0-0h2-2-0-2-3-3-2-2-5-5-0------10-----
e-0h2-2-0-2---------5-5-0---0-0h2-2-0-2---------5-5-0------10-----

e-----------------------------0--0-0------------------------------
b-----------------------------0--0-0------------------------------
g-----------------------------0--0-0------------------------0-0---
e--------12--12-12-12-12------0--0-0-----------12--12-12-12-0-0---
b--10-10-10--10-10-10-10-0-0--0--0-0-0-0-10-10-10--10-10-10-0-0-0-
e--10-10-10--10-10-10-10-0-0--0--0-0-0-0-10-10-10--10-10-10-0-0-0-

Interlude:

e-----------------------------------------------------------------
b-----------------------------------------------------------------
g-----------------------------------------------------------------
e-----------------------------------------------------------------
b-0-2------0-2----0-2----0-2------0-2---3------3b-----------------
e-0-2------0-2----0-2----0-2------0-2---3------3b-----------------

Gtr 1.
harmonics

e-----------------------------------------------------------------
b-----------------------------------------------------------------
g-----------------------------------------------------------------
e-----------------------------------------------------------------
b-----------------------------------------------------------------
e-5-5-5-4-4-4-3-3-33333333-1.51.51.51.5-2.2-2.2-2.2-3-3-3-4-4-4-5-

Gtr 2.

e-----------------------------------------------------------------
b-----------------------------------------------------------------
g-----------------------------------------------------------------
e-----------------------------------------------------------------
b-0-2-2-2-2-2-0-2-2-2-2-2-0-2-2-2-0-2-2-2-2-2-2-0-2-2-3---3-3--3--
e-0-2-2-2-2-2-0-2-2-2-2-2-0-2-2-2-0-2-2-2-2-2-2-0-2-2-3---3-3--3--

Bridge:

e-----------------------------------------------------------------
b-----------------------------------------------------------------
g-----------------------------------------------------------------
e-12121212121212121212121212121212-4-4-4-4-4-4--4-4-4-4-4-4-4-4-4-
b-10101010101010101010101010101010-0-0-0-0-0-0--2-2-2-2-2-2-2-2-2-
e-10101010101010101010101010101010-0-0-0-0-0-0--2-2-2-2-2-2-2-2-2-

e-----------------------------------------------------------------
b-----------------------------------------------------------------
g-----------------------------------------------------------------
e-12121212121212121212121212121212-7-7-7-7-7-7--5-5-5-5-5-5-5-5-5-
b-10101010101010101010101010101010-5-5-5-5-5-5--5-5-5-5-5-5-5-5-5-
e-10101010101010101010101010101010-4-4-4-4-4-4--5-5-5-5-5-5-5-5-5-

e-----------------------------------------------------------------
b-----------------------------------------------------------------
g-----------------------------------------------------------------
e-12121212121212121212121212121212-4-4-4-4-4-4--4-4-4-4-4-4-4-4-4-
b-10101010101010101010101010101010-0-0-0-0-0-0--2-2-2-2-2-2-2-2-2-
e-10101010101010101010101010101010-0-0-0-0-0-0--2-2-2-2-2-2-2-2-2-

e-----------------------------------------------------------------
b-----------------------------------------------------------------
g-----------------------------------------------------------------
e-12121212121212121212121212121212-12121212-141414-16161616161616-
b-10101010101010101010101010101010--------------------------------
e-10101010101010101010101010101010-12121212-141414-16161616161616-

Outro Chorus



Comments about this tab

No comments/corrections found. Add your own



2005 ZMG, Inc.- All Right Reserved - Privacy Statement