Rockin Tabs Home

 :: Home > Tabs > D > Dave Matthews Band > Ants Marching

Dave Matthews Band - Ants Marching


This tab has not yet been rated for accuracy.Sorry, but you must be logged in to rate this tab so we can tell which songs you've already voted on, which will help prevent cheating.
Click here to log-in, or you can click here to register.
(Registration is free)


Click here for a plain text version of this song (for better printing)

Add this tab to your list of favorite tabs




#----------------------------------PLEASE NOTE---------------------------------#
#This file is the author's own work and represents their interpretation of the #
#song. You may only use this file for private study, scholarship, or research. #
#------------------------------------------------------------------------------#


Author/Artist: Dave Matthews Band
Title: Ants Marching
Album: Under the Table and Dreaming
Transcribed by: Adam Strachn
Email: CookieMonster912@hotmail.com

Live at Luther College Version 
I have added Tims solo. Enjoy 


Intro/Verse -
-2-----------------------3-------------------------|
-3--x--------------------3--x-x--------------------|
-2--x--------------------0--x-x--------------------|
-0--x--------4-------4---0--x-x-------5-------5/7--|
----x---4h5-----4h5------2--x-x--4h5-----4h5-------|
-------------------------3-------------------------|


Chorus (take these chances . . .)
-(2)----2----(3)-------(2)-----0--|
--3-----3----(3)--------3------2--|
--4-----2-----0---------4------2--|
--4-----0-----0---------4------2--|
--2-----------2---------2------0--|
-(2)----------3--------(2)--------|
                                                                              

Bridge (all the little ants . . .)
-----------------|
-----------------|
--4-----4-----4--|
-----------------|
--2-----------2--|
--3-----2--------|


Jam  (play this a couple times)
-2-----------------------3-------------------------|
-3--x--------------------3--x-x--------------------|
-2--x--------------------0--x-x--------------------|
-0--x--------4-------4---0--x-x-------5-------5/7--|
----x---4h5-----4h5------2--x-x--4h5-----4h5-------|
-------------------------3-------------------------|


Stop Time Jam (Tim does his little solo here)
-2---------------3-------------|
-3---------------3-------------|
-2---------------0-------------|Just play this while Tim
-0---------------0-------------|goes off on his solo
-----------------2-------------|
-----------------3-------------|

Tims Solo (play with the slide)
------------------------------------------------------------------------------
-7--8--10--7--8--5--7--5/7--------7--8--10--7--8--5--7--5/7----7-8--10--7--8--
----------------------------7-------------------------------------------------
------------------------------------------------------------------------------
------------------------------------------------------------------------------
------------------------------------------------------------------------------
                                                                              
------------------------------------------------------------------------------
-6--7--5/7--------7--8--10--7--8--5--5--5/7-----7--8--10--7--8--7--5--5/3-----
------------7-----------------------------------------------------------------
------------------------------------------------------------------------------
------------------------------------------------------------------------------
------------------------------------------------------------------------------
                                                                              
let ring~~~~~~~~~~~~~~~~~~~~~~~~~~~
---------------------------------------------------10----10----10----10-------
-3~--3~--3~--3~--3~--3~--3~--3~--3~----3/10-----10----10----10----10----10----
------------------------------------------------------------------------------
------------------------------------------------------------------------------
------------------------------------------------------------------------------
------------------------------------------------------------------------------
                                                                              
 let ring ~~~~~~~~~~~~
-10----10----10----10-----15----15----15----15----15----15----15----15--------
----10----10----10----/15----15----15----15----15----15----15----15----/22----
------------------------------------------------------------------------------
------------------------------------------------------------------------------
------------------------------------------------------------------------------
------------------------------------------------------------------------------
                                                                              
let ring~~~~~~~~
-22----22----22----22----22----22----22----22-----15----15----15----15----15--
----22----22----22----22----22----22----22----/15----15----15----15----15-----
------------------------------------------------------------------------------
------------------------------------------------------------------------------
------------------------------------------------------------------------------
------------------------------------------------------------------------------
                                                                              
----15----15-----/12----10----10----19----19----17----17\-----15----15----15--
-15----15----15\-----10----10----10----19----17----17-----/15----15----15-----
------------------------------------------------------------------------------
------------------------------------------------------------------------------
------------------------------------------------------------------------------
------------------------------------------------------------------------------
                               

----15-----23----22----22----22----22----22----22----22----22----22----22-----
-15----/23----23----23----22----22----22----22----22----22----22----22----24--
------------------------------------------------------------------------------
------------------------------------------------------------------------------
------------------------------------------------------------------------------
------------------------------------------------------------------------------
                                                                              
                                    tremolo ~~~~~~~~~~~~~~~~~~~~~~~~~~~   
-24----------------/29----31----34--37~~~~~~~~~~~~~~~~~~~~~~~~~~~~~~~~~--15---
-------12--12---12-----29----31-----37~~~~~~~~~~~~~~~~~~~~~~~~~~~~~~~~~-------
----12------------------------------------------------------------------------
------------------------------------------------------------------------------
------------------------------------------------------------------------------
------------------------------------------------------------------------------
                                                                              
-16--17--17---17---17---17--17---17--17\--/10-10-10----10--10--10--/15-/-17---
------------------------------------------------------------------------------
------------------------------------------------------------------------------
------------------------------------------------------------------------------
------------------------------------------------------------------------------
------------------------------------------------------------------------------
                                                                              
-17/22--22-22---22-22-22-22-22-22-22-22---/22--22--22---22-22-22-22-22-22-----
-------------------------------------tp---------------------------------------
------------------------------------------------------------------------------
------------------------------------------------------------------------------
------------------------------------------------------------------------------
------------------------------------------------------------------------------

                                       tremolo~~~~~~~~~       ~~~~~~~~~~
-/27--26--27--26-27-26-27-227-29-29-29--29--------------------/29-------------
------------------------------------------------------------------------------
------------------------------------------------------------------------------
------------------------------------------------------------------------------
------------------------------------------------------------------------------
------------------------------------------------------------------------------
                                                                              
Tremolo~~~~~~~~~~~~~~~~~~~~~~~~~~~~~~~~~~~~~~~~~~~~~~~~~~~~~~~~~~~~~~~~~~~
-10-----17-----15-14-12-14-12-10-12-10-9-10-9-7-5---2---5---10-9-10-12-11-----
------------------------------------------------------------------------------
------------------------------------------------------------------------------
------------------------------------------------------------------------------
------------------------------------------------------------------------------
------------------------------------------------------------------------------
                                                                              
~~~~~~~~~~~~~~tremolo and let ring~~~~~~~~~~~~~~~~~~~~~~~~~~~~~~~~~~~~~~~~~~
-14/17--17-----22~~~~~~~~~~~~~~~~~~~~~~~~~~~~~~~~~~~~~~~~~~~~~~~~~~~~~~~~~~~--
------------------------------------------------------------------------------
------------------------------------------------------------------------------
------------------------------------------------------------------------------
------------------------------------------------------------------------------
------------------------------------------------------------------------------
                                                                              




The last part of stop time play this a few times
-3--3--3-  
-3--3--3--|
-0--0--0--|
-0--0--0--|
-2--2--2--|
-3--3--3--|


Towards the end of Tim&s solo -

The play the bridge 4x
-----------------|
-----------------|
--4-----4-----4--|
-----------------|
--2-----------2--|
--3-----2--------|

The play this bar
-------------2---|
-------------3---|
-5-----4-----2---|
-------------0---|
-3-----2---------|
-5-----3---------|

Then play this bar
-(2)----2----(3)-------(2)-----0--|
--3-----3----(3)--------3------2--|
--4-----2-----0---------4------2--|
--4-----0-----0---------4------2--|
--2-----------2---------2------0--|
-(2)----------3--------(2)--------|


Last chord in the song from Luther College
(Up and die . . .)
Free Strumming
|-2-|
|-3-|
|-2-|
|-0-|
|---|
|---|



Comments about this tab

No comments/corrections found. Add your own



2005 ZMG, Inc.- All Right Reserved - Privacy Statement